Song name
# A B C D E F G H I J K L M N O P Q R S T U V W X Y Z

Stereophonics - Local Boy In The Photograph tab

Both guitars start at the same time.
Kelly plays Gtr1.
Adam plays Gtr2.

Intro
Gtr 1. 
    G              Bm               C
e|--3-3-3-3-3-3-3-3-2-3-3-3-3-3-3-3---------------------------------|
B|--3-3-3-3-3-3-3-3-3-3-3-3-3-3-3-3-1-1-1-1-1-1-1-1-1-1-1-1-1-1-1-1-|
G|--0-0-0-0-0-0-0-0-4-4-4-4-4-4-4-4-0-0-0-0-0-0-0-0-0-0-0-0-0-0-0-0-|
D|--0-0-0-0-0-0-0-0-4-4-4-4-4-4-4-4-2-2-2-2-2-2-2-2-2-2-2-2-2-2-2-2-|
A|--2-2-2-2-2-2-2-2-----------------3-3-3-3-3-3-3-3-3-3-3-3-3-3-3-3-|
E|--3-3-3-3-3-3-3-3-------------------------------------------------|

Gtr2.

e|--10---------------10---------------8---------------8---------------|
B|-------7-----8---------7-----8---------7-----8---------7-----8----|
G|------------------------------------------------------------------|
D|------------------------------------------------------------------|
A|------------------------------------------------------------------|
E|------------------------------------------------------------------|

Gtr 1.
e|--------------------------|
B|-----3-----2--------------|
G|---2-----2----------------|
D|-0-----0------------------|
A|--------------3---2---0---|
E|--------------------------|

Gtr2.
e|--------------------------|
B|-----3-----2--------------|
G|---2-----2----------------|
D|-0-----0------------------|
A|--------------3---2---0---|
E|--------------------------|

Verse (play this part 7 times, after 4 the singing stops then starts again on the 6th time. 

Gtr 1 
    G              Bm               C
e|--3-3-3-3-3-3-3-3-2-3-3-3-3-3-3-3---------------------------------|
B|--3-3-3-3-3-3-3-3-3-3-3-3-3-3-3-3-1-1-1-1-1-1-1-1-1-1-1-1-1-1-1-1-|
G|--0-0-0-0-0-0-0-0-4-4-4-4-4-4-4-4-0-0-0-0-0-0-0-0-0-0-0-0-0-0-0-0-|
D|--0-0-0-0-0-0-0-0-4-4-4-4-4-4-4-4-2-2-2-2-2-2-2-2-2-2-2-2-2-2-2-2-|
A|--2-2-2-2-2-2-2-2-----------------3-3-3-3-3-3-3-3-3-3-3-3-3-3-3-3-|
E|--3-3-3-3-3-3-3-3-------------------------------------------------|

Gtr 2                               Gtr 2 plays C - Cmaj7, you can
                                    hear it on the CD

    G              Bm               C   
e|--3-3-3-3-3-3-3-3-2-3-3-3-3-3-3-3---------------------------------|
B|--3-3-3-3-3-3-3-3-3-3-3-3-3-3-3-3-1-1-0-0-1-1-0-0-1-1-0-0-1-1-0-0-|
G|--0-0-0-0-0-0-0-0-4-4-4-4-4-4-4-4-0-0-0-0-0-0-0-0-0-0-0-0-0-0-0-0-|
D|--0-0-0-0-0-0-0-0-4-4-4-4-4-4-4-4-2-2-2-2-2-2-2-2-2-2-2-2-2-2-2-2-|
A|--2-2-2-2-2-2-2-2-----------------3-3-3-3-3-3-3-3-3-3-3-3-3-3-3-3-|
E|--3-3-3-3-3-3-3-3-------------------------------------------------|

Bridge

Both Guitars
  
  and all the friends layed down the flowers sit on the banks and
e|-3---------------------------------0----------------------------|
B|-3---------------------------------3----------------------------|
G|-0---------------------------------2----------------------------|
D|-0---------------------------------0----------------------------|
A|-2--------------------------------------------------------------|
E|-3--------------------------------------------------------------|

   drink for hours talk of the way they saw him last
e|-0-------------------------------------------------------------|
B|----3------1---------------------------------------------------|
G|-----------0---------------------------------------------------|
D|-----------2---------------------------------------------------|
A|-----------3----------------------------------3-2-3-2----------|
E|---------------------------------------------------------------|

   local boy in the photo-
e|--------------------------------------------------------------|
B|--------------------------------------------------------------|
G|--------------------------------------------------------------|
D|--------------------------------------------------------------|
A|-3-2-3-2-3-2-3-2-3-2-3----------------------------------------|
E|--------------------------------------------------------------|

Gtr 1
    graph                           Today 
    G              Bm               C
e|--3-3-3-3-3-3-3-3-2-3-3-3-3-3-3-3---------------------------------|
B|--3-3-3-3-3-3-3-3-3-3-3-3-3-3-3-3-1-1-1-1-1-1-1-1-1-1-1-1-1-1-1-1-|
G|--0-0-0-0-0-0-0-0-4-4-4-4-4-4-4-4-0-0-0-0-0-0-0-0-0-0-0-0-0-0-0-0-|
D|--0-0-0-0-0-0-0-0-4-4-4-4-4-4-4-4-2-2-2-2-2-2-2-2-2-2-2-2-2-2-2-2-|
A|--2-2-2-2-2-2-2-2-----------------3-3-3-3-3-3-3-3-3-3-3-3-3-3-3-3-|
E|--3-3-3-3-3-3-3-3-------------------------------------------------|

Gtr 2.
    G              Bm               C   
e|--3-3-3-3-3-3-3-3-2-3-3-3-3-3-3-3---------------------------------|
B|--3-3-3-3-3-3-3-3-3-3-3-3-3-3-3-3-1-1-0-0-1-1-0-0-1-1-0-0-1-1-0-0-|
G|--0-0-0-0-0-0-0-0-4-4-4-4-4-4-4-4-0-0-0-0-0-0-0-0-0-0-0-0-0-0-0-0-|
D|--0-0-0-0-0-0-0-0-4-4-4-4-4-4-4-4-2-2-2-2-2-2-2-2-2-2-2-2-2-2-2-2-|
A|--2-2-2-2-2-2-2-2-----------------3-3-3-3-3-3-3-3-3-3-3-3-3-3-3-3-|
E|--3-3-3-3-3-3-3-3-------------------------------------------------|

Gtr 1 plays verse twice while Gtr 2 plays this twice:

e|--10---------------10---------------8---------------8-------------|
B|-------7-----8---------7-----8---------7-----8---------7-----8----|
G|------------------------------------------------------------------|
D|------------------------------------------------------------------|
A|------------------------------------------------------------------|
E|------------------------------------------------------------------|

Gtr 1. Keep Strumming C

Gtr2. play this 4 times
e|--------------------------|
B|-----3-----2--------------|
G|---2-----2----------------|
D|-0-----0------------------|
A|--------------3---2---0---|
E|--------------------------|

Then Play this 4 times
Gtr 1 
    G              Bm               C
e|--3-3-3-3-3-3-3-3-2-3-3-3-3-3-3-3---------------------------------|
B|--3-3-3-3-3-3-3-3-3-3-3-3-3-3-3-3-1-1-1-1-1-1-1-1-1-1-1-1-1-1-1-1-|
G|--0-0-0-0-0-0-0-0-4-4-4-4-4-4-4-4-0-0-0-0-0-0-0-0-0-0-0-0-0-0-0-0-|
D|--0-0-0-0-0-0-0-0-4-4-4-4-4-4-4-4-2-2-2-2-2-2-2-2-2-2-2-2-2-2-2-2-|
A|--2-2-2-2-2-2-2-2-----------------3-3-3-3-3-3-3-3-3-3-3-3-3-3-3-3-|
E|--3-3-3-3-3-3-3-3-------------------------------------------------|

Gtr 2.
    G              Bm               C   
e|--3-3-3-3-3-3-3-3-2-3-3-3-3-3-3-3---------------------------------|
B|--3-3-3-3-3-3-3-3-3-3-3-3-3-3-3-3-1-1-0-0-1-1-0-0-1-1-0-0-1-1-0-0-|
G|--0-0-0-0-0-0-0-0-4-4-4-4-4-4-4-4-0-0-0-0-0-0-0-0-0-0-0-0-0-0-0-0-|
D|--0-0-0-0-0-0-0-0-4-4-4-4-4-4-4-4-2-2-2-2-2-2-2-2-2-2-2-2-2-2-2-2-|
A|--2-2-2-2-2-2-2-2-----------------3-3-3-3-3-3-3-3-3-3-3-3-3-3-3-3-|
E|--3-3-3-3-3-3-3-3-------------------------------------------------|

Both Guitars:
e|--------------------------|
B|-----3-----2--------------|
G|---2-----2----------------|
D|-0-----0------------------|
A|--------------3---2---0---|
E|--------------------------|

Both Guitars
  
  and all the friends layed down the flowers sit on the banks and
e|-3---------------------------------0----------------------------|
B|-3---------------------------------3----------------------------|
G|-0---------------------------------2----------------------------|
D|-0---------------------------------0----------------------------|
A|-2--------------------------------------------------------------|
E|-3--------------------------------------------------------------|

   drink for hours talk of the way they saw him last
e|-0-------------------------------------------------------------|
B|----3------1---------------------------------------------------|
G|-----------0---------------------------------------------------|
D|-----------2---------------------------------------------------|
A|-----------3----------------------------------3-2-3-2----------|
E|---------------------------------------------------------------|

   local boy in the photo-
e|--------------------------------------------------------------|
B|--------------------------------------------------------------|
G|--------------------------------------------------------------|
D|--------------------------------------------------------------|
A|-3-2-3-2-3-2-3-2-3-2-3----------------------------------------|
E|--------------------------------------------------------------|

Gtr 1
    graph                           Today 
    G              Bm               C
e|--3-3-3-3-3-3-3-3-2-3-3-3-3-3-3-3---------------------------------|
B|--3-3-3-3-3-3-3-3-3-3-3-3-3-3-3-3-1-1-1-1-1-1-1-1-1-1-1-1-1-1-1-1-|
G|--0-0-0-0-0-0-0-0-4-4-4-4-4-4-4-4-0-0-0-0-0-0-0-0-0-0-0-0-0-0-0-0-|
D|--0-0-0-0-0-0-0-0-4-4-4-4-4-4-4-4-2-2-2-2-2-2-2-2-2-2-2-2-2-2-2-2-|
A|--2-2-2-2-2-2-2-2-----------------3-3-3-3-3-3-3-3-3-3-3-3-3-3-3-3-|
E|--3-3-3-3-3-3-3-3-------------------------------------------------|

Gtr 2.
e|--10---------------10---------------8---------------8-------------|
B|-------7-----8---------7-----8---------7-----8---------7-----8----|
G|------------------------------------------------------------------|
D|------------------------------------------------------------------|
A|------------------------------------------------------------------|
E|------------------------------------------------------------------|


Gtr 1
    G              Bm               C
e|--3-3-3-3-3-3-3-3-2-3-3-3-3-3-3-3---------------------------------|
B|--3-3-3-3-3-3-3-3-3-3-3-3-3-3-3-3-1-1-1-1-1-1-1-1-1-1-1-1-1-1-1-1-|
G|--0-0-0-0-0-0-0-0-4-4-4-4-4-4-4-4-0-0-0-0-0-0-0-0-0-0-0-0-0-0-0-0-|
D|--0-0-0-0-0-0-0-0-4-4-4-4-4-4-4-4-2-2-2-2-2-2-2-2-2-2-2-2-2-2-2-2-|
A|--2-2-2-2-2-2-2-2-----------------3-3-3-3-3-3-3-3-3-3-3-3-3-3-3-3-|
E|--3-3-3-3-3-3-3-3-------------------------------------------------|

Gtr 2.
e|--10---------------10---------------8---------------8-------------|
B|-------7-----8---------7-----8---------7-----8---------7-----8----|
G|------------------------------------------------------------------|
D|------------------------------------------------------------------|
A|------------------------------------------------------------------|
E|------------------------------------------------------------------|

Both Guitars:times 4           let ring
e|--------------------------|--3-|
B|-----3-----2--------------|--3-|
G|---2-----2----------------|--0-|
D|-0-----0------------------|--0-|
A|--------------3---2---0---|--2-|
E|--------------------------|--3-|
Tap to rate this tab
 
# A B C D E F G H I J K L M N O P Q R S T U V W X Y Z