Song name
# A B C D E F G H I J K L M N O P Q R S T U V W X Y Z

Stereophonics - I Stop To Fill My Car Up tab

Help us improve GuitareTab! Take a short survey!

--------------------|--------------------|------------------------| 
-1-------1--0----1--|---------1--0----1--|-1----------------1-----| 
-2----2-------------|-0----2-------------|-2----0-h-2-------2-----| 
-2------------------|-2------------------|-3----3--------------3--| 
-0------------------|-2------------------|-3-------------3--------| 
--------------------|-3------------------|------------------------| 

--------------------|------X---------|------------------------| 
-1-------1--0----0--|------3-h-5--3--|-1----------------1-----| 
-2----2-------------|-0----X---------|-2----0-h-2-------2-----| 
-2------------------|-2--------------|-3----3--------------3--| 
-0------------------|-2--------------|-3-------------3--------| 
--------------------|-3--------------|------------------------| 

Verse 




I stopped to fill my car up 
-------------------------------------------| 
------1---------------0--1-----------1-----| 
------2---------------0--2-----------2-----| 
--2---2---------------2--3--------------3--| 
--0---0----------2----2--3---------3-------| 
-----------------3----3--------------------| 

. 

Chorus 



Then I looked up and looked in the mirror behind me 
-------------------------------------------------------------------| 
----1-------------1-------------1----------1----1----1-------1--1--| 
----0-------------0-------------0----------0----2----0-------2--0--| 
----2-------------X-------------2----------0----3----3-------3--3--| 
--3-3------2------2------0------0----------X----3----3-------3--3--| 
---------------------------------------3---3-----------------------| 

The later verses and choruses onll change slightly. 


Outro 

. 
. 

------------------------------------------------------| 
-----1---1-1-------------------1----1-1-1-1-1-1-------| 
-2-2-2---2-2------0---0-0--2-2-2----2-2-0-0-2-2-------| 
-2-2-2---2-2--2-2-2---2-2--3-3-3----3-3-3-3-3-3-------| 
-0-0-0---0-0--2-2-2---2-2--3-3-3----3-3-3-3-3-3-------| 
--------------3-3-3---3-3-----------------------s12s--| 


--------------------------------------------| 
-----1---1-1-------------------1------------| 
-2-2-2---2-2------0---0-0--2-2-2------------| 
-2-2-2---2-2--2-2-2---2-2--3-3-3------------| 
-0-0-0---0-0--2-2-2---2-2--3-3-3------------| 
--------------3-3-3---3-3-----------12-s-3--| 
. 


___________________x2 
---------------------|---------------------------------------------------------- 
-1-p-0---------------|-1-0------1s3-3--3-3--3s5-5--5-5--5s8-8--8-8--8s10-10--10- 
-------2-0-2~~~-2-0--|-----2-0-------------------------------------------------- 
---------------------|---------------------------------------------------------- 
---------------------|---------------------------------------------------------- 
---------------------|---------------------------------------------------------- 

-------------------------------------------------------------------------------- 
10--10s12-12--12-12--12s13-13--13-13--13s15-15--15-15-15s17---17-17---17--17--1
7 
-------------------------------------------------------------------------------- 
-------------------------------------------------------------------------------- 
-------------------------------------------------------------------------------- 
-------------------------------------------------------------------------------- 

-------------| 
-22--17--22--| 
-------------| 
-------------| 
-------------| 
-------------| 

-------------------------------------------------------------------------------- 
-8b-8b-8bhold bend~~~~~~-----8-------------------------------------------------- 
--------------------------7b----7b--7b---5b-------------------------5--7p5-7p5-- 
--------------------------------------------7--5--7~~~--5--7--7~~~-------------- 
--------------------------------------------0--0--0-----0--0--0----------------- 
-------------------------------------------------------------------------------- 

-------------------------------------------------------------------| 
--7b-----7b-----7b-----7b-----5-5--X-X-X-X--X-X-X-X--X-X-X-X-------| 
--7b-5---7b-5---7b-5---7b-5---5-5--X-X-X-X--X-X-X-X--X-X-X-X-------| 
-----------------------------------7-5-7-7--7-5-7-7--7-5-7-7-------| 
-----------------------------------0-0-0-0--0-0-0-0--0-0-0-0-------| 
-----------------------------------X-X-X-X--X-X-X-X--X-X-X-X-s12s--| 

-------------------------------|--------------------|--X-X-X-X--X-X-X-X--| 
-------------------------------|-X-X------X-X-------|--X-X-X-X--X-X-X-X--| 
-5b--5~~~--4b--4~~~--2b--2~~~--|-X-X------X-X-------|--2-2-2-2--2-2-2-2--| 
-------------------------------|-X-X------X-X-------|--X-X-X-X--X-X-X-X--| 
-------------------------------|-X-X------X-X-------|--------------------| 
-------------------------------|-X-X-s12s-X-X-s12s--|--------------------| 
. 

-------------------------------------------------------------------------------- 
-10b-10-10---10-10--12b-12-12---12-12--13b-13-13---13-13--15b-15-15---15-15-17b- 
-------------------------------------------------------------------------------- 
-------------------------------------------------------------------------------- 
-------------------------------------------------------------------------------- 
-------------------------------------------------------------------------------- 

------------------------------------------------------------------------------| 
-17-17---17-17--19b-19-19---19-19-21bhold bend->->->->->->->->->->->->->-etc--| 
------------------------------------------------------------------------------| 
------------------------------------------------------------------------------| 
------------------------------------------------------------------------------| 
------------------------------------------------------------------------------| 

-randomly hit string to make--| 
-car crashing sound here------| 
-----0---0------------0-------| 
-------------0--------0-0-----| 
---0-0-0--0-0-0---0-0---0-0---| 
-0-0-0-0-0----0-0-0-0-----0-0-| 







_________________x4 
--------------|--------------|-----------------------|-------------------| 
----1--1-0----|-------1-0----|-----1-----------------|-------------------| 
--2-2---------|----0---------|--2--2--------0--------|-------0-h-2----0--| 
--2-2---------|--2-2---------|--3--3-----------------|--3----------------| 
--0-0---------|--2-2---------|--3--3-----------------|-------------------| 
--------------|--3-3---------|-----------------------|-------------------| 

__________________________x2 
----------------------------|----------------------------|-------------| 
--1----0--------------------|--1----0--------------------|--1----1--0--| 
------------2bu4bd2----0----|------------2bu4bd2----0----|--2----------| 
----------------------------|----------------------------|--2----------| 
----------------------------|---Pinch harmonic on bend---|--0----------| 
----------------------------|----------------------------|-------------|
_________________
Related for I Stop To Fill My Car Up tab