Song name
# A B C D E F G H I J K L M N O P Q R S T U V W X Y Z

Stereophonics - Is Yesterday Tomorrow Today tab

Is Yesterday,Tomorrow,Today.
There were no decent tabs D: 
So I've attempted to do one myself. 
I add little things in, that make it sound a bit cool tbh. They're very subtle, so 
you might not even notice them. 
First tab, So there's bound to be some mistakes. 

Capo 2nd fret. 
Standard tuning ( EABDGe) 


Intro & Verse :)

e ----------------------------------|
b ----------------------------------|
g --------0h2--2h0-------0h2----0h2-|
d --------0----0-----2---2------0---|  
a -----2-------------3--------2-----|
e -----3----------------------3-----|

e -0-0-0-0-0-0-0-0-0-|
b -3-3-1-1-0-0-0-0-0-|
g -0-0-0-0-0-0-0h2p0-|
d -2-2-2-2-2-2-0-0-0-|
a -3-3-3-3-3-3-3-3-3-|
e -------------------|

It's another way..
To get through the day,
Picking up ripped cigarette boxes,
Hoping that one remains.

Yellow lucky day,
Suck deep and bathe,
For the next ten minutes spend coughing,
All the pleasures craved,

Chorus

          Am               G
e ----0-0-0-0-0-0-0---3-3-3-3-3-3-3---------------|
b ----1-1-1-1-1-0-0---0-0-0-0-0-0-0---------------|
g ----2-2-2-2-2-2-2---0-0-0-0-0-0-0---------------|
d ----2-2-2-2-2-2-2---0-0-0-0-0-0-0---------------|
a ----0-0-0-0-0-0-0---2-2-2-2-2-0-0---------------|
e --------------------3-3-3-3-3-2-2---------------|

"Write down all the things that you's like to say"

e ----0-0-0-0-0-0-0---3-3-3-3-3-3-3-2-2-2---------|
b ----1-1-1-1-1-0-0---0-0-0-0-0-0-0-3-3-3---------|
g ----2-2-2-2-2-2-2---0-0-0-0-0-0-0-2-2-2---------|
d ----2-2-2-2-2-2-2---0-0-0-0-0-0-0---------------|
a ----0-0-0-0-0-0-0---2-2-2-2-2-2-0---------------|
e --------------------3-3-3-3-3-3-2---------------|

"Write down all the things that you'd like to change"


e ----0-0-0-0-0-0-0---3-3-3-3-3-3-3---------------|
b ----1-1-1-1-1-0-0---0-0-0-0-0-0-0---------------|
g ----2-2-2-2-2-2-2---0-0-0-0-0-0-0---------------|
d ----2-2-2-2-2-2-2---0-0-0-0-0-0-0---------------|
a ----0-0-0-0-0-0-0---2-2-2-2-2-0-0---------------|
e --------------------3-3-3-3-3-2-2---------------|

"Write down all the places you'd like to stay"
 
                                      
e ----0-------------------|
b ----1-------------------|
g ----2-------------------|
d ----2-------------------|
a ----0-------------------|
e ------------------------|
 
"write down anything that you'd want"

   
e -0--------------------0-----0---0---0-|
b -1--------------------0-----0---0---0-|
g -0--------------------0h2---0---0h2-0-|
d -0--------------------0-----2---0---2-|
a -2--------------------2-----3---2---3-|
e -3--------------------3---------3-----|
"Is yesterday tomorrow today..Nothing gonna change the way... Hey hey.."

At the end of the chorus rest your palm on the strings and just play down.

Back to verse- Same as 1st
Then chorus again the same as 1st

Then Outro kind of thing.
I bend alot of these chords. Like the D's and Am's

e --3-3-0-0-2-2-|       
b --0-0-1-1-3-3-|         
g --0---0-0-2-2-|  x3  
d --0---2---0---|
a --2---3-------|
e --3-----------|
" everything thats you.. And all the things you like to do.. all the things that are"

e -0-|
b -1-|  Strum several times & bend ^. 
g -2-|
d -2-|
a -0-|
e ---|
" Come back again"

e -1------------3-----0-|
b -1------------0-----1-|
g -2------------0-----0-|
d -3------------0-----2-|
a -3------------2-----3-|
e -1------------3-------|
"come baaaaaaack agaiin" 

e -3-----------0-|
b -0-----------1-|
g -0-----------0-|
d -0-----------2-|
a -2-----------3-|
e -3-------------|

"Come back again"

e -1----------|
b -1----------|
g -2----------|
d -3----------|
a -3----------|
e -1----------|
" Is yesterday, tomorrow.."

e ---------------------------|
b ---------------------------|
g --------0h2--2h0-------0h2-|
d --------0----0-----2---2---|  x
a -----2-------------3-------|
e -----3---------------------|
"Today"


e -0---------------1--------------|
b -1-0--1p0--------1-0--1p0-------|
g -2-------2p0-----2-------2p0----|
d -2----------2p0--3----------3p0-| x2
a -0------------------------------|
e --------------------------------|


e ------3-|
b -----0--|
g ----0---|
d ---0----|
a --2-----|
e -3------|

Hope youzz likeh it. :) Tell me if i've messed up xD
Tap to rate this tab
 
# A B C D E F G H I J K L M N O P Q R S T U V W X Y Z