Stereophonics - Dakota tab

INTRO:

RIFF 1: x 2 (Second time w/ Riff 2 and Riff 3)
|---------------------|-----------------|-----------------|------------------|
|---------------------|-----------------|-----------------|------------------|
|---------------------|-----------------|-----------------|------------------|
|-9-(9)-9-9-9-9-9-9-9-|-9-9-9-9-9-9-9-9S|-6-6-6-6-6-6-6-6-|-6-6-6-6-6-6-6-6S=|
|---------------------|-----------------|-----------------|------------------|
|---------------------|-----------------|-----------------|------------------|


|-----------------|-----------------|-----------------|------------------|
|-----------------|-----------------|-----------------|------------------|
|-----------------|-----------------|-----------------|------------------|
|-2-2-2-2-2-2-2-2-|-2-2-2-2-2-2-2-2S|-9-9-9-9-9-9-9-9-|-9-9-9-9-9-9-9-9--|
|-----------------|-----------------|-----------------|------------------|
|-----------------|-----------------|-----------------|------------------|

RIFF 2:
  E                                                  C#m   
|-------------------------|-------------------------|-------------------------|
|-12----12----12----12----|-12----12----12----12----|-14----14----14----14----|
|----13----13----13----13-|----13----13----13----13-|----13----13----13----13-|
|-------------------------|-------------------------|-------------------------|
|-------------------------|-------------------------|-------------------------|
|-------------------------|-------------------------|-------------------------|

 

  C#m                       Amaj7                                                  
|-------------------------|-------------------------|---------------------------|
|-14----14----14----14----|-------------------------|---------------------------|
|----13----13----13----13-|----13----13----13----13-|------13----13----13----13-|
|-------------------------|-14----14----14----14----|--14-----14----14----14----|
|-------------------------|-------------------------|---------------------------|
|-------------------------|-------------------------|---------------------------|

  E
|------------------------|------------------------|
|-12---12----12----12----|-12---12----12----12----|
|------------------------|------------------------|
|---14----14----14----14-|---14----14----14----14-|
|------------------------|------------------------|
|------------------------|------------------------|

RIFF 3:(with Riff 1)
|------------------|
|------------------|
|-------------9----| (pick up note on last bar of Riff 1)
|------------------|
|------------------|
|------------------|

(with Riffs 1 and 2)
|-12-------------------|-11----------------|----------------|-----------------|
|----------------------|-------------------|-12-------------|-(12)------------|
|-----------------9----|--------------9- --|----------------|-----------9-----|
|----------------------|-------------------|----------------|-----------------|
|----------------------|-------------------|----------------|-----------------|
|----------------------|-------------------|----------------|-----------------|

|----------------------|--------------------|---------------|-----------------
|-12-------------------|-(12)---------------|-12------------|-(12)------------|
|----------------------|---------------9----|---------------|-----------------|
|----------------------|--------------------|---------------|-----------------|
|----------------------|--------------------|---------------|-----------------|
|----------------------|--------------------|---------------|-----------------|


VERSE 1: (with Riff 1 and Riff 2)

E                          C#m
Thinking back, thinking of you 
                      Amaj7
Summertime think it was June. 
                    E                              
Yeah, I think it was June.

E                      C#m
Laying back head on the grass, 
                          Amaj7
Chewing gum, having some laughs, 
(w/ Riff 4)        E                               
Yeah, having some laughs.

RIFF 4:
 PM----------------------------------------------
|-0--0--0--0--0--0--0--0|-0--0--0--0--0--0--0--0|-0--0--0--0--0--0--0--0|-0--0--0--0--0|
|12-12-12-12-12-12-12-12|12-12-12-12-12-12-12-12|12-12-12-12-12-12-12-12|12-12-12-12-12|
|-----------------------|-----------------------|-----------------------|--------------|
|-----------------------|-----------------------|-----------------------|--------------|
|-----------------------|-----------------------|-----------------------|--------------|
|-----------------------|-----------------------|-----------------------|--------------|

CHORUS: 

A (w/ Riff 5)
You made me feel like the one, 
                      E (w/ Riff 6)
Made me feel like the one, the one. 
A (w/ Riff 5)
You made me feel like the one, 
                      E (w/ Riff 6)                           
Made me feel like the one, the one. 

RIFF 5:

|Guitar 1:
|--12------11------|----------------|--12-----11------|---------------|
|------------------|-12-------------|-----------------|-12------------|
|------------------|---------13-----|-----------------|--------13-----|
|------------------|----------------|-----------------|---------------|
|------------------|----------------|-----------------|---------------|
|------------------|----------------|-----------------|---------------|
|
|Guitar 2:
|------------------|----------------|-----------------|---------------|
|--14------12------|----------------|--14-----12------|---------------|
|------------------|-13-------------|-----------------|-13------------|
|------------------|---------14-----|-----------------|--------14-----|
|------------------|----------------|-----------------|---------------|
|------------------|----------------|-----------------|---------------|

RIFF 6:

|Guitar 1:
|---------------------------------------|---------------------------------------|
|---------------------------------------|---------------------------------------|
|-13-b14r==(13)b14r==(13)b14r==(13)b14==|-13-b14r==(13)b14r==(13)b14r==(13)b14==|
|---------------------------------------|---------------------------------------|
|---------------------------------------|---------------------------------------|
|---------------------------------------|---------------------------------------|
|
|Guitar 2:
|---------------------------------------|---------------------------------------|
|---------------------------------------|---------------------------------------|
|---------------------------------------|---------------------------------------|
|-14-b16r==(14)b16r==(14)b16r==(14)b16==|-14-b16r==(14)b16r==(14)b16r==(14)b16==|
|---------------------------------------|---------------------------------------|
|---------------------------------------|---------------------------------------|



VERSE 2: (w/ Riff 2 and Riff 3)

E                        C#m
Drinking by drinking for two,
              Amaj7                  E
Drinking with you, when drinking was new. 
E                          C#m
Sleeping in the back of my car, 
              Amaj7 (w/ Riff 4)       E                  
We never went far, didn't need to go far. 


CHORUS
 

BRIDGE:
 
E                  B            A (w/ Riff 7)
I don't know where we are goin' now. 

RIFF 7:
|-------------------|-------------------|
|-------------------|-------------------|
|----------9---11---|----------9---11---|
|-9---11------------|-9---11------------|
|-------------------|-------------------|
|-------------------|-------------------|

E                  B            A (w/ Riff 7)
I don't know where we are goin' now. 

VERSE 3 (w/ Riff 1 and Riff 2)

E                        C#m
Wake up call, coffee and juice, 
             A                    E
Remembering you, what happened to you? 
E (w/ Riff 3)             C#m
I wonder if we'll meet again? 
                        A maj7 (w/ Riff 4)             E            
Talk about life since then, talk about why did it end. 


CHORUS 


OUTRO

E                  B            A (w/ Riff 7)
I don't know where we are goin' now. 
E                  B            A (w/ Riff 7)
I don't know where we are goin' now. 
                     E                         B
So take a look at me now. So take a look at me now. 
                     A (w/ Riff 7)
So take a look at me now. So take a look at me now. 
                      E (w/ Riff 7)            B (w/ Riff 7)
So take a look at me now. So take a look at me now. 
                     A (w/ Riff 7)
So take a look at me now. So take a look at me now. 
                  E
Take a look at me now. 

(w/ Riff 1 to end)
So take a look at me now. So take a look at me now. 
So take a look at me now. So take a look at me now. 
So take a look at me now. So take a look at me now. 
So take a look at me now. So take a look at me now. 
Now.
Tap to rate this tab
 
# A B C D E F G H I J K L M N O P Q R S T U V W X Y Z