Song name
# A B C D E F G H I J K L M N O P Q R S T U V W X Y Z

Stereophonics - A Thousand Trees tab

I was annoyed at the fact that there were no full song tabs for 1000 trees, so I made 
mesel... Tis my  first one, so I expect there to be mistakes...
Please email me at s.pye@collingwood.surrey.sch.uk with constructive critism and/or praise...

E 3--3--5--5--3--3--5--5---|
A 5--5--7--7--5--5--7--7---|  x4
D -------------------------|
G -------------------------|
B -------------------------|
E -------------------------|

E 3--4--5--3--4--5--3--4--5--3-|
A 5--6--7--5--6--7--5--6--7--5-|
D -----------------------------|
G -----------------------------|
B -----------------------------|
E -----------------------------|

E 3--3--3--3--5--5--5--5--6--7--8--9---|
A 5--5--5--5--7--7--7--7--8--9--10-11--| x4
D -------------------------------------|
G -------------------------------------|
B -------------------------------------|
E -------------------------------------|

E 2--1--1--1--1--1--2--2--2--1--1--1--1--1--2--2--2--2-|
A 4-----------------4--4--4-----------------4--4--4--4-|
D -----------------------------------------------------|
G -----------------------------------------------------|
B -----------------------------------------------------|
E -----------------------------------------------------|

E 3--3--3--3--5--5--5--5--6--7--8--9---|
A 5--5--5--5--7--7--7--7--8--9--10-11--| x2
D -------------------------------------|
G -------------------------------------|
B -------------------------------------|
E -------------------------------------|

E 3--3--3--3--5--5--5--5--6--7--8--9---|
A 5--5--5--5--7--7--7--7--8--9--10-11--| x4
D -------------------------------------|
G -------------------------------------|
B -------------------------------------|
E -------------------------------------|

E 2--1--1--1--1--1--2--2--2--1--1--1--1--1--2--2-|
A 4-----------------4--4--4-----------------4--4-|
D -----------------------------------------------|
G -----------------------------------------------|
B -----------------------------------------------|
E -----------------------------------------------|

E 3--3--3--3--5--5--5--5--6--7--8--9---|
A 5--5--5--5--7--7--7--7--8--9--10-11--| x2
D -------------------------------------|
G -------------------------------------|
B -------------------------------------|
E -------------------------------------|

E 5--5--5--5-|
A 6--6--6--6-|
D -----------|
G -----------|
B -----------|
E -----------|

E 7--7--7--7--8--8--8--8--8---|
A 9--9--9--9--10-10-10-10-10--| x4
D ----------------------------|
G ----------------------------|
B ----------------------------|
E ----------------------------|

E 3--3--3--3--5--5--5--5--6--7--8--9---|
A 5--5--5--5--7--7--7--7--8--9--10-11--| x2
D -------------------------------------|
G -------------------------------------|
B -------------------------------------|
E -------------------------------------|

E 5--6--7--8--9--10--11--12--|
A 7--8--9--10-11-12--13--14--| x8
D ---------------------------|
G ---------------------------|
B ---------------------------|
E ---------------------------|

E 2--1--1--1--1--1--2--2--2--2-|
A 4-----------------4--4--4--4-|
D -----------------------------|
G -----------------------------|
B -----------------------------|
E -----------------------------|

E 3--3--3--3--5--5--5--5--6--7--8--9---|
A 5--5--5--5--7--7--7--7--8--9--10-11--| x3
D -------------------------------------|
G -------------------------------------|
B -------------------------------------|
E -------------------------------------|
Tap to rate this tab
 
# A B C D E F G H I J K L M N O P Q R S T U V W X Y Z