Song name
# A B C D E F G H I J K L M N O P Q R S T U V W X Y Z

Stereophonics - Roll Up And Shine tab

ROLL UP AND SHINE -STEREOPHONICS      ALBUMB-PERFORMANCE AND COCKTAILS

IT IS QUITE EASY WHEN YOU GET THE HANG OF IT
THIS IS THE FIRST TAB I HAVE WTRITTEN SO ENJOY!
TABBED BY LAURA!  FWNCISLOTH2001@HOTMAIL.COM


INTRO

         A5
E--------------------------------------------------------------------------------------------------------------------------------]
B--------------------------------------------------------------------------------------------------------------------------------]
G--------------------------------------------------------------------------------------------------------------------------------]                       D------5----7---7---5---7---5---7-------5---7---5---7---7---5---7---7---5---7---5---7---5---7---5---7---7-----]
A--------0------------0----------0-----0----0---------0-----0----0----0----0-----0----------0----------0-----0---0-----0----0----0-----0----0------]
E-----------------------------------------------------------------------------------------------------------------------------------------------------------------]



VERSE

E--------------------------------------------------------------------------------------------------------------------------]
B----5---5---5---5---5---5---------------5---5---5---------------------------5-------------------------------------]
G----7---7---7---7---7---7---5---5------5---5---5---7---7---7---7---7---7---5---------------------------------]
D-------------------------------------7-------7---7---7---5---5---5---5---5-----------7---------7---7---7---7-------]                            A---------------------------------------------------------------------------------------------0---------0---0---0---0--------]
E---------------------------------------------------------------------------------------------------------------------------------]



E-------------------------------------------------------------------------------------------
B---5---5---5---5---5---5----------------------------------------------------------5----------------
G---7---7---7---7---7---7---5---5------5---5---5--5---7---7---7---7---7---7-----5--------------------------------
D-------------------------------------7-----7---7---7---7-------------------------------------7------7---7---7---7------
A--------------------------------------------------------------------------------------------------0-----0---0---0---0--------
E-----------------------------------------------------------------------------------------------


E-----------------------------------------------------------------------------------------------
B---5---5---5---5---5---5-----------------5---5---5---5----------------------------5------------------------
G---7---7---7---7---7---7---5---5-------5---5---5---5----7---7---7---7---7---7---5------------------------------------
D-------------------------------------7------7---7---7---7-----5---5---5---5---5-------------7-----7---7---7---7
A----------------------------------------------------------------------------------------------------0-----0---0---0---0---------
E-------------------------------------------------------------------------------------------------


E-----------------------------------------------------------------------------------
B--5---5---5---5---5---5------------------5---5---5---5--------------------------------
G--7---7---7---7---7---7---5---5--------5---5---5---5------------------------------------------
D------------------------------------7-------7---7---7---7-------5---7---7---5---7---5---5---4-------5---4---0-
A------------------------------------------------------------------------------------------------------------------------3--
E------------------------------------------------------------------------------------


Tap to rate this tab
 
# A B C D E F G H I J K L M N O P Q R S T U V W X Y Z