Stereophonics - Is Yesterday Tomorrow Today tab

I think this is right. Its a good song. Listen to the original to work out the rhythm and stuff :)

Capo 2nd Fret
Standard Tuning EADGBe

Chords:

      E A D G B e
G     3 2 0 0 3 3
C     x 3 2 0 1 0
Cadd9 x 3 2 0 3 0
Am    x 0 2 2 1 0
D     x x 0 2 3 2
Dsus4 x x 0 2 3 3
F     x x 3 2 1 1

h= hammer on
p= pull off

Intro:

    G               C               G
e------------------------------------------------|
B------------------------------------------------|
G-------0h2---2p0-------0h2---2p0------0h2---2p0-|
D-------0-------0---2---0-------0------0-----0---|
A---2---------------3---------------2------------|
E---3-------------------------------3------------|

  Cadd9          C
e---0-0-0--0-0---0--0-0-0-0-0--|
B---3-3-3--3-3---1--1-1-1p0h1--|
G---0-0-0--0-0---0--0-0-0-0-0--|
D---2-2-2--2-2---2--2-2-2-2-2--|
A---3-3-3--3-3---3--3-3-3-3-3--|
E------------------------------|

Verse:

    G                    C                           G
e-------------------------------------------------------------------------|
B-------------------------------------------------------------------------|
G-------0h2---2p0------------0h2---2p0------------------0h2---2p0---------|
D-------0-------0--------2---0-------0------------------0-----0-----------|
A---2--------------------3---------------------------2--------------------|
E---3------------------------------------------------3--------------------|
            Its another way      To get through the day     Pickin' up them

  Cadd9            C
e---0-0-0--0-0-----0--0-0-0-0-0--|
B---3-3-3--3-3-----1--1-1-1p0h1--|
G---0-0-0--0-0-----0--0-0-0-0-0--|
D---2-2-2--2-2-----2--2-2-2-2-2--|
A---3-3-3--3-3-----3--3-3-3-3-3--|
E--------------------------------|
   cigarette boxes hopin' that one re-

    G               C               G
e----------------------------------------------------------------|
B----------------------------------------------------------------|
G-------0h2---2p0--------------0h2---2p0---------------0h2---2p0-|
D-------0-------0----------2---0-------0---------------0-----0---|
A---2----------------------3-----------------------2-------------|
E---3----------------------------------------------3-------------|
  -mains      Yellow lucky day       Suck deep and bathe
       Cadd9                   C
For the next ten minutes spent coughing all the pleasures craved

     Chorus:
Am                                           G
Write down all the things that you'd like to say
Am                                           G  D    Dsus4
Write down all the things that you'd like to change
Am                                      G
Write down all the places you'd like to stay
Am
Write down anything that you want
C (one strum)
Is yesterday tomorrow
    G              C                                G            C
e------------------------------------------------------------------------x--|
B------------------------------------------------------------------------x--|
G-------0h2---2p0-----0h2---2p0------------------------0h2--2p0------0h2-x--|
D-------0-------0--2--0-------0------------------------0---------2---0---x--|
A---2--------------3--------------------------------2------------3-------x--|
E---3-----------------------------------------------3--------------------x--|
----------------------------------------------------------------------------| 
to-day-ay-ay-ay-ay   is nothin' gonna change the way-ay-ay-ay-ay

     2nd Verse (same as first verse- use the riff):

                 G                    C
Cracked rock top wall. Let the ash to fall
              G
Left alone to wait
          Cadd9      C
I've never looked at things I've liked
              G
Only things I hate
                       C
You're not the first today
        G
Not the softest face
          Cadd9                       C
Was there any that you like was there any that you didn't fake

     Chorus:
Am                                           G
Write down all the things that you'd like to be
Am                                         G  D    Dsus4
Write down all the things that you don't believe
Am                                      G
Write down all the places you'd like to see
Am
Write down anything that you want

     (Different from first time, keep strumming the C and don't play the riff)

C                       G
Is yesterday tomorrow today
C                           G
Is nothin' gonna change the way

     (Now its sort of a bridgey/outro kinda thing)

           G   C              D
Because everything that's you
         G              C          D (bend the chord)
And the things that you like to do
     G          C              D (bend the chord)
And all of the things that are
      Am
Come back again
      F   C      G
Come ba-a-ack agaaaiinnn
     F    G
Come back agaaaiinnn
          G    D  C
Come back agai-ai-ainnn
          G    D  C
Come back agai-ai-ainnn
   F
Is yesterday tomorrow to-
   G                C            G           C
e---------------------------------------------------------|
B---------------------------------------------------------|
G-------0h2---2p0-----0h2---2p0----0h2--2p0------0h2--2p0-|
D-------0-------0--2--0-------0----0---------2---0----0---|
A---2--------------3-------------2-----------3------------|
E---3----------------------------3------------------------|
    -day

    Am               F
e---0----------------0-----------------|
B---1--0--1p0--------1--0--1p0---------|
G---2--------2p0-----0--------2p0------|
D---2-----------2p0--2-----------3p0---|
A---0----------------3-----------------|
E--------------------------------------|

    Am               F                  G
e---0----------------0------------------3--|
B---1--0--1p0--------1--0---------------3--|
G---2--------2p0-----0-----0h2----2p0---0--|
D---2-----------2p0--2------------------0--|
A---0----------------3------------------x--|
E---------------------------------------3--|

Order:

Intro (main riff)
Verse
Chorus
Bit in between verse and chorus (basically the riff)
Verse
Chorus
Bridge
Outro
Tap to rate this tab
 
# A B C D E F G H I J K L M N O P Q R S T U V W X Y Z