Song name
# A B C D E F G H I J K L M N O P Q R S T U V W X Y Z

Stereophonics - More Life In A Tramps Vest tab

More Life In A Tramps Vest-Stereophonics

Written by Kelly Jones

Intro + Verse

A5        D5        Bm        D5        A

Chorus

A         D/F       E        

A         D/A       A         D/F       E

Solo

e------------------------------------------|
B-10-10------10-10-----10-10----10-10------|
G-------9-9--------9-9------9-9-------9s7--|
D------------------------------------------|
A------------------------------------------|
E------------------------------------------|

Then 

e---------------------------------------------------------------|
B----------------------------------10----10----10----10v--------|
G-6h7p6-6-7-6h7p6-6-7--6-7p6---7s9----9-----9-----9------9--9s--|
D---------------------------------------------------------------|
A---------------------------------------------------------------|
E---------------------------------------------------------------|

Order

Intro
Verse
Chorus
Solo
Verse
Chorus

Thanks!
Enjoy!


Tap to rate this tab
 
# A B C D E F G H I J K L M N O P Q R S T U V W X Y Z