Song name
# A B C D E F G H I J K L M N O P Q R S T U V W X Y Z

Stereophonics - Local Boy In The Photograph tab

G-----------------|-----------------|-----------5-5---------------5-5-|
D-----------------|--------------5--|-----5-----------------5---------|
A-----------------|-2-2-2-2-2-5h7-7-|-3-3---3---------3-3-3---3-------|
E-3-3-3-3-3-3-3-3-|-----------------|---------------------------------|


G------------------------|
D------------------------|
A-5----5-----3---2--0----|
E----------------------3-|


G-----------------|-----------------|-----------5-5---------------5-5-|
D-----------------|--------------5--|-----5-----------------5---------| x7
A-----------------|-2-2-2-2-2-5h7-7-|-3-3---3---------3-3-3---3-------|
E-3-3-3-3-3-3-3-3-|-----------------|---------------------------------|


G--------------------|-----------------------------|
D--------------------|-----------------------------|
A--7----7-5----5-----|-3-2-3-2-3-2-3-2-3-2-3-2-3-2-|
E----------------5---|-----------------------------|


G-----------------|-----------------|-----------5-5---------------5-5-|
D-----------------|--------------5--|-----5-----------------5---------| x3
A-----------------|-2-2-2-2-2-5h7-7-|-3-3---3---------3-3-3---3-------|
E-3-3-3-3-3-3-3-3-|-----------------|---------------------------------|


G------------------------|
D------------------------| x4
A-5----5-----3---2--0----|
E----------------------3-|


G-----------------|-----------------|-----------5-5---------------5-5-|
D-----------------|--------------5--|-----5-----------------5---------| x4
A-----------------|-2-2-2-2-2-5h7-7-|-3-3---3---------3-3-3---3-------|
E-3-3-3-3-3-3-3-3-|-----------------|---------------------------------|


G------------------------|
D------------------------| 
A-5----5-----3---2--0----|
E----------------------3-|


G--------------------|-----------------------------|
D--------------------|-----------------------------|
A--7----7-5----5-----|-3-2-3-2-3-2-3-2-3-2-3-2-3-2-|
E----------------5---|-----------------------------|


G-----------------|-----------------|-----------5-5---------------5-5-|
D-----------------|--------------5--|-----5-----------------5---------| x2
A-----------------|-2-2-2-2-2-5h7-7-|-3-3---3---------3-3-3---3-------|
E-3-3-3-3-3-3-3-3-|-----------------|---------------------------------|


G------------------------|
D------------------------| x3
A-5----5-----3---2--0----|
E----------------------3-|
Tap to rate this tab
# A B C D E F G H I J K L M N O P Q R S T U V W X Y Z