Song name
# A B C D E F G H I J K L M N O P Q R S T U V W X Y Z

Stereophonics - Vegas Two Times tab

-----------------------------------------------------------------------------
			     LAS Vegas Two Times - Stereophonics
-----------------------------------------------------------------------------
Tabbed by: the mighty Quave
Email:oldcabage@hotmail.com

Tuning:Standard - EADGBe

There is about 50 seconds of crap at the start of this song so fast forward it.

Intro
e|---------------------------------------------|
B|-3r------------------------------------------|
G|-2r------------------------------------------|x3
D|-0r-----0-----0-----0------------------------|
A|----3p0---3p0---3p0---3-0--------------3-5---|
E|-------------------------3-2~~3~~4~~5~~------|

e|---------------------------111--111--1111---|
B|-3r------------------------000--000--0000---|
G|-2r------------------------000--000--0000---|
D|-0r-----0-----0-----0------000--000--0000---|
A|----3p0---3p0---3p0---3-0--222--222--2222---|
E|-------------------------3-333--333--3333---|


Verse 1

Chords used in the verses are:

  B5      E      E#11
e|-x-   e|-0-   e|-0-
B|-x-   B|-0-   B|-0-
G|-4-   G|-1-   G|-3-
D|-4-   D|-2-   D|-2-
A|-2-   A|-2-   A|-2-
E|-x-   E|-0-   E|-0-

So it started with the immigration information bore
B5						E
You gotta know
	  E#11
Gambling floor, then to the S T U D I O 54
         B5                              E
You gotta go
	  E#11


Chorus
e|---------------------------------------------|
B|-3r------------------------------------------|
G|-2r------------------------------------------|x3
D|-0r-----0-----0-----0------------------------|
A|----3p0---3p0---3p0---3-0--------------3-5---|
E|-------------------------3-2~~3~~4~~5~~------|

e|---------------------------111--111--1111---|
B|-3r------------------------000--000--0000---|
G|-2r------------------------000--000--0000---|
D|-0r-----0-----0-----0------000--000--0000---|
A|----3p0---3p0---3p0---3-0--222--222--2222---|
E|-------------------------3-333--333--3333---|


Verse 2
So parted at the ground floor, front door, car hire room for four
B5							      E
We gotta go
	 E#11
Rambling slow then to the LA marquis all the imitation folk
	 B5						E
We gotta go.
	 E#11

Chorus
e|---------------------------------------------|
B|-3r------------------------------------------|
G|-2r------------------------------------------|x3
D|-0r-----0-----0-----0------------------------|
A|----3p0---3p0---3p0---3-0--------------3-5---|
E|-------------------------3-2~~3~~4~~5~~------|

e|---------------------------111--111--1111---|
B|-3r------------------------000--000--0000---|
G|-2r------------------------000--000--0000---|
D|-0r-----0-----0-----0------000--000--0000---|
A|----3p0---3p0---3p0---3-0--222--222--2222---|
E|-------------------------3-333--333--3333---|

Bridge

 D       D7      G/D     G/D?  
e|-2-   e|-2-   e|-5-   e|-5-
B|-3-   B|-1-   B|-3-   B|-3-
G|-2-   G|-2-   G|-4-   G|-3-
D|-0-   D|-0-   D|-0-   D|-0-
A|-x-   A|-x-   A|-x-   A|-x-
E|-x-   E|-x-   E|-x-   E|-x-

Play these four chords through for a bar each twice 
and then two bars on the last chord before the pre-chorus.

Pre-Chorus
e|------------------------------|
B|------------------------------|
G|------------------------------|x4
D|------------------------------|
A|-5p3---5----------------3-5---|
E|-----5------2~~3~~4~~5~~------|

Chorus
e|---------------------------------------------|
B|-3r------------------------------------------|
G|-2r------------------------------------------|x3
D|-0r-----0-----0-----0------------------------|
A|----3p0---3p0---3p0---3-0--------------3-5---|
E|-------------------------3-2~~3~~4~~5~~------|

e|---------------------------111--111--1111---|
B|-3r------------------------000--000--0000---|
G|-2r------------------------000--000--0000---|
D|-0r-----0-----0-----0------000--000--0000---|
A|----3p0---3p0---3p0---3-0--222--222--2222---|
E|-------------------------3-333--333--3333---|

e|---------------------------------------------|
B|-3r------------------------------------------|
G|-2r------------------------------------------|x3
D|-0r-----0-----0-----0------------------------|
A|----3p0---3p0---3p0---3-0--------------3-5---|
E|-------------------------3-2~~3~~4~~5~~------|

e|---------------------------111--111---|
B|-3r------------------------000--000---|
G|-2r------------------------000--000---|
D|-0r-----0-----0-----0------000--000---|
A|----3p0---3p0---3p0---3-0--222--222---|
E|-------------------------3-333--333---|


| /  slide up
| \  slide down
| h  hammer-on
| p  pull-off
| ~  vibrato
| +  harmonic
| x  Mute note
| r  Let the note ring
=============================================================================
Tap to rate this tab
# A B C D E F G H I J K L M N O P Q R S T U V W X Y Z