Song name
# A B C D E F G H I J K L M N O P Q R S T U V W X Y Z

Stereophonics - Violins And Tambourines tab

-------------------------------------------------------------------------------
                    VIOLINS AND TAMBOURINES - Stereophonics
-------------------------------------------------------------------------------
Tabbed by: Diego Flores
E-mail: diegofe22@gmail.com

Tuning: Standard

verse/chorous
   dm
e|----------------------------------------------------------------------|
B|----3--1--5h6--1--1h3-------------------------------------------------|
G|----------------------------------------------------------------------|
D|-0--------------------------------------------------------------------|
A|----------------------------------------------------------------------|
E|----------------------------------------------------------------------|

*or*
   dm
e|----------0h1--------------------------------------------------------------|
B|----3--1-------1--1h3------------------------------------------------------|
G|---------------------------------------------------------------------------|
D|-0-------------------------------------------------------------------------|
A|---------------------------------------------------------------------------|
E|---------------------------------------------------------------------------|
fade out

heavy part
D5 till the end of the song

*Lyrics*

Looking out the window,
Staring at the road,
Doesnít really matter,
Which way to go,
Everything is changing,
Nothing ever seems to stay the same.

Violins and tambourines and candy canes and magazines,
Preaching sermons on the street, I killed a man but life is cheap, they say.

Stopped on the way home,
Side of the road,
Met her at the drug store,
Saving peoples souls,
She offered me redemption,
Iíll take a drink instead if thatís ok.

Violins and tambourines and candy canes and magazines,
Preachers sermons on the street, I killed a man but life is cheap, they say.

Violins and tambourines and candy canes and magazines,
Preachers sermons on the street, I killed a man but life was cheap.

Violins and tambourines and children sing songs in the street,
Innocence is underrated, knock me out, Iíll be sedated.

Violins and tambourines and pounding drums in unity,
Choose your soul emancipated, every time we meet she wants to save me.

She wants to save me,
Canít she save me?
Wonít you save me?
Tap to rate this tab
 
# A B C D E F G H I J K L M N O P Q R S T U V W X Y Z