Song name
# A B C D E F G H I J K L M N O P Q R S T U V W X Y Z

Stereophonics - Madame Helga tab

Band: Stereophonics
Song: Madame Helga
Album: You Gotta Go There To Come Back
Tabbed By: Toby Sinclair

Lead Guitar Parts

Intro:

e|--------------------------------------|	e|------------------|
B|---10-12-12-12-12--10-10--------------|	B|------------------|
G|--------------------------10-9-7------|	G|--10-9-7----------|
D|----------------------------------9-9-|  x3	D|---------9--------| x3
A|--------------------------------------|	A|------------------|
E|--------------------------------------|	E|------------------|

Verse:

e|---------------------------|
B|---------------------------|
G|-----------------2-0-2-----|
D|-------2---3-3-4-----------| Riff 1
A|-2-2-5---5-------------2---|
E|---------------------------|

e|---------------------------|
B|---------------------------|
G|---------------------------|
D|-------2---3-3-4-2-0-2-----| Riff 2
A|-2-2-5---5-------------2---|
E|---------------------------|

Chorus:

e|---------------------------|
B|---------------------------|
G|---------------------------|
D|---3h4--3h4--3h4-----------| Riff 1
A|---------------------------|
E|---------------------------|

e|---------------------------|
B|---------------------------|
G|---------------------------|
D|---------------------------| Riff 2
A|-5-3---5-3-2---------------|
E|-----5---------------------|

e|---------------------------|
B|---------------------------|
G|---------------------------|
D|---------------------------| Riff 3
A|---3-----------------------|
E|-5---3-4-5-----------------|

e|---------------------------|
B|---------------------------|
G|---------------------------|
D|---3-55-3-55--3-55--3------| Riff 4
A|---------------------------|
E|---------------------------|
Tap to rate this tab
# A B C D E F G H I J K L M N O P Q R S T U V W X Y Z