Guitaretab - guitar tabs
Song name
# A B C D E F G H I J K L M N O P Q R S T U V W X Y Z

Stereophonics - Pedalpusher tab

Pedalpusher-Stereophonics

Band-Kelly Jones-Vocals,Guitar.
     Richard Jones-Bass.
     Javier Weyler-Drums.

Intro

(Drums)

Verse

Gtr 1 (Dist)

e----------------------------------|
B-10---10--------------------------|
G-9----9---7----7------------------|
D-7----7---7----7--11--11--11--11--|
A-7----7---5----5--9---9---9---9---|
E----------------------------------| As Many Times As Neccesary

Gtr 2 (Dist)

e----------------|--------------| This comes in very lightly and on the 
B----------------|--------------| 3rd and 4th time of the verses.
G-5/6--4--2------|---5/6--4--2--|
D-----------4-2--|-4------------|
A----------------|--------------|
E----------------|--------------| 

Chorus

Gtr 1 + Gtr 2 w/ Dist
[ Tab from: http://www.guitaretab.com/s/stereophonics/57685.html ]
e---------------------------------------------------|
B---------------------------------------------------|
G-4-4-4-4-4-4-4-4-4-4-4-4--6-6-6-6-6-6-6-6-6-6-6-6--|
D-4-4-4-4-4-4-4-4-4-4-4-4--6-6-6-6-6-6-6-6-6-6-6-6--|
A-2-2-2-2-2-2-2-2-2-2-2-2--4-4-4-4-4-4-4-4-4-4-4-4--|
E---------------------------------------------------| As Many times as neccesary

Verse 2

As Verse 1

Chorus 

As Chorus 1

Bridge/Solo

Gtr 1

(As Verse)

Gtr 2

e-------------------------------------------|
B-12b-12b-12b-12b-12-12-12-12--10-12-10-----|
G---------------------------------------11--|
D-------------------------------------------|
A-------------------------------------------|
E-------------------------------------------| x2

e---------------------------------|
B---------------------------------|
G-4b-4b-4b-4b--4-4-4-4--2-4-2-----|
D------------------------------4--|
A---------------------------------|
E---------------------------------|

Chorus

As Chorus 1 but more times 

Outro

e-------------------------------------------------------|
B-------------------------10--10------------------------|
G-------------------------9---9---7--7------------------|
D-11--11--11--11--11--11--7---7---7--7--11--11--11--11--|
A-9---9---9---9---9---9---7---7---5--5--9---9---9---9---|
E-------------------------------------------------------|
Related for Pedalpusher tab