Guitaretab - guitar tabs
Song name
# A B C D E F G H I J K L M N O P Q R S T U V W X Y Z

Stereophonics - Doorman tab

Doorman-Stereophonics

Music by-Kelly Jones
         Richard Jones
         Javier Weyler

Verse

e--------------------------------------------------|
B-8-8-8-8-8-8-8-8-8-8-8-8-8-8----------------------|
G-7-7-7-7-7-7-7-7-7-7-7-7-7-7----------------------|
D-9-9-9-9-9-9-9-9-9-9-9-9-9-9--7-7-7-7-7-7-7--5-5--|
A-7-7-7-7-7-7-7-7-7-7-7-7-7-7--7-7-7-7-7-7-7--5-5--|
E------------------------------5-5-5-5-5-5-5--3-3--|

Pre-Chorus

e------------|
B------------|
G------------|
D------------|
A------------|
E-0-0-3b-3b--| x4

Chorus

Guitar 1

e------------------------------------------|
B------------------------------------------|
G------------------------------------------|
D---2-2------------------------------------|
A-------3-3-3-3--2-2-2---------------------|
E-0---------------------3-3-3-2-2-2-0-0-0--| As Many Times As Neccesary

Guitar 2

e---------------------|
B-3-3b----3-----------|
G------2b---2r-0------|
D----------------2-0--|
A---------------------|
E---------------------| As Many Times As Neccesary


Solo 1

Do this a couple of times.

Play verse chords underneath.

Ok this is an update to the solo i just watched the 'phonics' new DVD and i watched 
Jones do the solo to Doorman this is extremely quick and there is a lot of tremolo picking.

(Do this bit till you think you've done enough it is really quick)

e-----------------------------------------------------------------|
B-15p12-------15p12-------15p12-------15p12--------15p12----------|
G-------14p12-------14p12-------14p12--------14p12-------14p12----|
D-----------------------------------------------------------------|
A-----------------------------------------------------------------|
E-----------------------------------------------------------------|

e--------------------------15b-15b-15b-15b-15b-15b-12--------12----------|
B-15b-15b-15b-15b-15b-15b-----------------------------15-----------------|
G--------------------------------------------------------14b-----14rp12--|
D------------------------------------------------------------------------|
A------------------------------------------------------------------------|
E------------------------------------------------------------------------|

This is tremolo Picked
e----------------------------------------------------------|
B----------------------------------------------------------|
G-14b-14b-14b-14b-14b-14b-14b-14b-14b-14b-14b-14b-14b-14b--|
D----------------------------------------------------------|
A----------------------------------------------------------|
E----------------------------------------------------------|

(Do this a hell of a lot too and there is little pause while you bend)

e-----------------------------------------------------|
B-----------------------------------------------------|
G-14bp12----14bp12-----14bp12----14bp12----14bp12-----|
D--------14--------14---------14--------14--------14--|
A-----------------------------------------------------|
E-----------------------------------------------------|

(Again Tremolo Picked)
[ Tab from: http://www.guitaretab.com/s/stereophonics/63038.html ]
e------------------------------------------------------------------|
B------------------------------------------------------------------|
G-14b-14b-14b-14b-14b-14b-14b-14b-14b-14b-14b-14b-14b-14b-14b-14b--|
D------------------------------------------------------------------|
A------------------------------------------------------------------|
E------------------------------------------------------------------|

(Extremely Quick)

e--------------------------------------------------|
B--------------------------------------------------|
G--------------------------------------------------|
D-12h14p12h14p12h14p12h14p12h14p12h14p12h14p12h14--|
A--------------------------------------------------|
E--------------------------------------------------|

e------------------------------------------------------------------------|
B-15b-15b-15b-15b-15b-15b-15b-15b-15b-15b-15b-15b--15bbbb--12------------|
G-------------------------------------------------------------14-14bp12--|
D------------------------------------------------------------------------|
A------------------------------------------------------------------------|
E------------------------------------------------------------------------|

e----------------------------------------------|
B-------12-12-------12-12-------12-12----------|
G-------12-12-------12-12-------12-12----------|
D-14-14-------14-14-------14-14-------14////0--|
A----------------------------------------------|
E----------------------------------------------|

Guitar 2

Underneath E5 Guitar 2 plays.

e--------------------|
B--------------------|
G--------------------|
D-9-9-9-9-9-9-9-9-9--|
A--------------------|
E--------------------|

then these fills over A5 and G5

e----------------|
B----------------|
G----------------|
D--7-8-9--7-8-9--|
A----------------|
E----------------|

e-----12-----12-----12-----12--|
B-15b----15b----15b----15b-----|
G------------------------------|
D------------------------------|
A------------------------------|
E------------------------------|

Sometimes Kelly says 'Yeah-Yeah Yeah-Yeah'

Solo 2

e-----------------------------------------------|
B-----------------------------------------------|
G-----------------------------------------------|
D---------------------------------------7b-5----|
A-5h7p5h7p5h7p5h7p5h7p5h7p5h7p5h7p5h7p5------7--|
E-----------------------------------------------| x2

e---------------------------------------------------------|
B---------------------------------------------------------|
G----------------------------------------14b-14b-14b-14b--|
D-12h14p12h14p12h14p12h14p12h14p12h14p12------------------|
A---------------------------------------------------------|
E---------------------------------------------------------|

e---------------------------------------------|
B-15b-15b-15b-15b-15b-15b-15b-15b-15br--------|
G--------------------------------------14-12--|
D---------------------------------------------|
A---------------------------------------------|
E---------------------------------------------| x2

e------------------------------------------------|
B-17b-17b-17b-17b-17b-17b-17b-17b-17br-15--------|
G-----------------------------------------14-12--|
D------------------------------------------------|
A------------------------------------------------|
E------------------------------------------------|

e-17b-17b-17b-17b-19-19-17-15-17b////0--|
B---------------------------------------|
G---------------------------------------|
D---------------------------------------|
A---------------------------------------|
E---------------------------------------|

Thats it thanks enjoy!

Any Corrections jac_d89@hotmail.com
Related for Doorman tab