Guitaretab - guitar tabs
Song name
# A B C D E F G H I J K L M N O P Q R S T U V W X Y Z

Stereophonics - I Miss You Now tab

I Miss You Now

Tab Symbols: h hammer on/off
             s slide up/down
             # bend up
             b bend down

INTRO: Am7             D7               Am7              D7
     E --------------|-----------------|----------------|---------------|
     B ------------7# b7---------------|--------------7# b7-------------|
     G ---------5--7# b7------7# b7--5-|-----------5--7# b7-------7# b7-|
     D -----5h7------|-----------------|-7-----5h7------|---------------|
     A --------------|-----------------|----------------|---------------|
     E --------------|-----------------|----------------|---------------|

VERSE: Am7                                                       D7
      i feel numb wanna hold you wanna tell you that youll be allright

      Am7                                                      D7
      sad news from todays call all the pictures are all in my mind

[ Tab from: ]
CHORUS:G                     G7      (b5)Am7 (b9)D7 (b5)Am7 (b9)D7
      E -----------------------------|-----3-------------3--------|
      B ---------------8--7--6-------|-4h5----4-5-----4h5---4-5---|
      G ---------5h7-s9---8--7-------|-5------5-------5-----5-----|
      D ------5h7--------------------|-5------4-------5-----4-----|
      A -----------------------------|-0------5-------0-----5-----|
      E -----------------------------|----------------------------|
         I.......I           miss you now       (REPEAT)

GUITAR SOLO AT END: Am7           D7
                  E -------------|--------------|
                  B -------------|--------------|
                  G -12#-7#---5--|5h7-----------|
                  D --------7---7|--------------|
                  A -------------|--------------|
                  E -------------|--------------|
                          (THREE TIMES)

I Didn't tab this, just noticed it wasn't here and it has a cool intro
Related for I Miss You Now tab