Song name
# A B C D E F G H I J K L M N O P Q R S T U V W X Y Z

Stereophonics - Pedalpusher Live tab

Pedalpusher - Stereophonics (Live at Dakota)
Tabbed by Maroczys

Intro (leads immediately into Verse 1)

e|------------------|
B|------------------|
G|---------14-14----|
D|--14-14--12-12----|
A|--12-12-----------|
E|------------------|

Verses (play 10 times for each verse; twice before he starts singing then 8 times underneath the lyrics)

e|------------------------------------------|
B|------------------------------------------|
G|---------------------------------14-14----|
D|--11-11---11-11---11-11---14-14--12-12----|
A|--9--9----9--9----9--9----12-12-----------|
E|------------------------------------------|

Choruses

e|------------------------------------------|
B|------------------------------------------|
G|------------------------------------------|
D|------------------------------------------|
A|--9------------------11-------------------|
E|--7------------------9--------------------|
   "You got............ain't............

Bridging solo (play between choruses 2 and 3)

e|-----------------------------------------------------|
B|--12b13-12b13-12b13-12b13-12-12-12-12-10-12-10-7~~---|
G|-----------------------------------------------------|
D|-----------------------------------------------------|
A|-----------------------------------------------------|
E|-----------------------------------------------------|

Solo (play after chorus 3)

e|----------------------------------------------------|
B|--12b13-12b13-12b13-12b13-12-12-12-12-10-12-10-7~~--|  x2
G|----------------------------------------------------|
D|----------------------------------------------------|
A|----------------------------------------------------|
E|----------------------------------------------------|

e|-----------------------------------------|
B|-----------------------------------------|
G|-----------------------------------------|
D|--9b10-9b10-9b10-9b10-9-9-9-9-7-9-7-4~~--| x3
A|-----------------------------------------|
E|-----------------------------------------|

e|-----------------------------------------|
B|------------------------------------7~~--|
G|-----------------------------------------|
D|--9b10-9b10-9b10-9b10-9-9-9-9-7-9-7------|
A|-----------------------------------------|
E|-----------------------------------------|

Chorus 7 (last one)

e|-------------------------------------------|
B|-------------------------------------------|
G|-------------------------------------------|
D|-------------------------------------------|
A|--9------------------11--------------------|
E|--7------------------9---------------------|
   "You got.............ain't got it."

Outro

e|------------------------------------------|
B|------------------------------------------|
G|---------------------------------14-14----|
D|--11-11---11-11---11-11---14-14--12-12----|
A|--9--9----9--9----9--9----12-12-----------| x2
E|------------------------------------------|

e|------------|
B|------------|
G|------------|
D|--11-11-----|
A|--9--9------|
E|------------|

Running order:

Intro
Verse 1
Chorus 1
Verse 2
Chorus 2
Bridging solo
Chorus 3
Solo
Choruses 4,5,6,7
Outro

~~ = vibrato
  = slide down
Tap to rate this tab
# A B C D E F G H I J K L M N O P Q R S T U V W X Y Z