Song name
# A B C D E F G H I J K L M N O P Q R S T U V W X Y Z

Stereophonics - Plastic California tab

Plastic California-Stereophonics

Music By-Kelly Jones
         Richard Jones
         Stuart Cable

Intro
 D5       D5
e-0-0------0-0------|
B-3---3----3---3----|
G-2-----2--2-----2--|
D-0--------0--------|
A-x--------x--------|
E-x--------x--------|

Verse 1

e-0-0------0-0-------|-3--3-----|
B-3---3----3---3-----|-3--3-----|
G-2-----2--2-----2---|-0--0--0--|
D-0--------0---------|-0-----0--|
A-x--------x---------|-2-----2--|
E-x--------x---------|-3--------|

'Plastic California..' 'Looks like....'

Chorus
(Let Ring)
e-0----3----2----|
B-1----3----3----|
G-0----0----2----|
D-2----0----0----|
A-3----2----x----|
E-x----3----x----| x2

Chorus

e-0-0-0-0-0-0-0--3-3-3-3-3-3-3--2-2-2-2-2-2-2--|
B-1-1-1-1-1-1-1--3-3-3-3-3-3-3--3-3-3-3-3-3-3--|
G-0-0-0-0-0-0-0--0-0-0-0-0-0-0--2-2-2-2-2-2-2--|
D-2-2-2-2-2-2-2--0-0-0-0-0-0-0--0-0-0-0-0-0-0--|
A-3-3-3-3-3-3-3--2-2-2-2-2-2-2--x-x-x-x-x-x-x--|
E-x-x-x-x-x-x-x--3-3-3-3-3-3-3--x-x-x-x-x-x-x--| x2


Instrumental 1
 D5  D D5  D* D5 D  D5 D*   G G G G G G G G 
e-0--2--0--3--0--2--0--3----3-0-3-0-3-0-3-0--|
B-3--3--3--3--3--3--3--3----3-3-3-3-3-3-3-3--|
G-2--2--2--2--2--2--2--2----0-0-0-0-0-0-0-0--|
D-0--0--0--0--0--0--0--0----0-0-0-0-0-0-0-0--|
A-x--x--x--x--x--x--x--x----2-2-2-2-2-2-2-2--|
E-x--x--x--x--x--x--x--x----3-3-3-3-3-3-3-3--| x4

Instrumental 2
        Em7
e-0-0-0-0-0-0-0-0-0--0-0-0-0-0-0-0-0--|
B-3-3-3-3-3-3-3-3-3--3-3-3-3-3-3-3-3--|
G-0-0-0-0-0-0-0-0-0--2-2-2-2-2-2-2-2--|
D-2-2-2-2-2-2-2-2-2--0-0-0-0-0-0-0-0--|
A-2-2-2-2-2-2-2-2-2--x-x-x-x-x-x-x-x--|
E-0-0-0-0-0-0-0-0-0--x-x-x-x-x-x-x-x--| x4

Outro

e-0-0------0-0------0-0---------0-----------------|
B-3---3----3---3----3---3-------3-----3----3---3--|
G-2-----2--2-----2--2-----2-----2---2---2---2-----|
D-0--------0--------0-------0---0-0---0---0-------|
A-x--------x--------x-----------x-----------------|
E-x--------x--------x-----------x-----------------|

Order

Intro
Verse
Chorus
Verse
Chorus
Instrumental 1
Verse 
Chorus
Instrumental 2
Outro
Tap to rate this tab
# A B C D E F G H I J K L M N O P Q R S T U V W X Y Z