Song name
# A B C D E F G H I J K L M N O P Q R S T U V W X Y Z

Stereophonics - I Could Lose Ya Live tab

Stereophonics - I Could Lose Ya (Live)

new track from the itunes festival
this ain't a perfect tab, but it's a start.

standard tuning (EBGDAE)

INTRO

E|---------8~~~~7~~~~8~~~~7~~~~-----------------------------------------|
B|----------------------------------------------------------------------|
G|----------------------------------------------------------------------|
D|-8/10-10--------------------------------------------------------------|
A|-8/10-10--------------------------------------------------------------|
E|-6/8--8---------------------------------------------------------------|
   ^     ^
   |     |
   -------
      |
   this X4


VERSE

E|-8~~~~7~~~~8~~~~7~~~~-------------------------------------------------|
B|----------------------------------------------------------------------|
G|---------------------9-9--9-9--9-9--9-9--88-88-88-88------------------|
D|---------------------1010-1010-1010-1010-99-99-99-99------------------|
A|---------------------1010-1010-1010-1010-99-99-99-99------------------|
E|---------------------8-8--8-8--8-8--8-8--77-77-77-77------------------|
                       ^                              ^
                       |                              |
                       --------------------------------
                                      |
                                  this X2

Chorus

E|-8-8-8-8-(repeat to fill)12--12--12--12--12-12-12-12------------------|
B|--8-8-8-8------------------12--12--12--12-----------------------------|
G|----------------------------------------------------------------------|
D|----------------------------------------------------------------------|
A|----------------------------------------------------------------------|
E|----------------------------------------------------------------------| X2

Solo

E|----------------------------------------------------------------------|
B|------------------------18~~--18-17~--17-15b15b15b15b-15~15~15~15~~~--|
G|-19-14--/19--19-14--/19-----------------------------------------------|
D|------15----------15--------------------------------------------------|
A|----------------------------------------------------------------------|
E|----------------------------------------------------------------------|

-----------------------------
Tab key
-----------------------------
D - Downstroke
U - Upstroke
~ - Vibrato
/ - Slide
p - Pull off
h - Hammer on
(t) - tremelo pick
b - Bend
^ - Bend and hold at highest pitch
x - Mute note
P.M._ - Palm mute until end of the ___
v - Whammy dive
w - Whammy vibrato


rate it! 
comments and suggestions welcome, check out me profile!
-soupdragon
Tap to rate this tab
# A B C D E F G H I J K L M N O P Q R S T U V W X Y Z