Guitaretab - guitar tabs
Song name
# A B C D E F G H I J K L M N O P Q R S T U V W X Y Z

Stereophonics - Pass The Buck tab

Pass The Buck-Stereophonics

Intro

Gtr 1 + Gtr 2

e-x-x-x-x-x-x-x-x-x-x-x-x-x--|
B-x-x-x-x-x-x-x-x-x-x-x-x-x--|
G-x-x-x-x-x-x-x-x-x-x-x-x-x--|
D-x-x-x-x-x-x-x-x-x-x-x-x-x--|
A-x-x-x-x-x-x-x-x-x-x-x-x-x--|
E-x-x-x-x-x-x-x-x-x-x-x-x-x--|

Verse

Guitar 1

e--------------------------|
B--------------------------|
G------7-7-------5-5--4-4--|
D-7-7--7-7--5-5--5-5--4-4--|
A-7-7--5-5--5-5--3-3--2-2--|
E-5-5-------3-3------------| x4

Then

Guitar 1

e--------------------------|
B--------------------------|
G------7-7-------5-5--4-4--|
D-7-7--7-7--5-5--5-5--4-4--|
A-7-7--5-5--5-5--3-3--2-2--|
E-5-5-------3-3------------| x4

Guitar 2

e--------------------------|
B--------------------------|
G------7-7-------5-5--4-4--|
D-7-7--7-7--5-5--5-5--4-4--|
A-7-7--5-5--5-5--3-3--2-2--|
E-5-5-------3-3------------| x4

Pre-Chorus

Guitar 1

e-----------------------------------------------------|
B-----------------------------------------------------|
G-----------------------------------------------------|
D-3-3-3-3-3-3-3-3-3-3-3-3--5-5-5-5-5-5-5-5-5-5-5-5-5--|
A-3-3-3-3-3-3-3-3-3-3-3-3--5-5-5-5-5-5-5-5-5-5-5-5-5--|
E-1-1-1-1-1-1-1-1-1-1-1-1--3-3-3-3-3-3-3-3-3-3-3-3-3--| x2

Guitar 2

e----12----12----12----12----12----12----12----12----12----12----12--|
B-13----13----13----13----13----13----15----15----15----15----15-----|
G--------------------------------------------------------------------|
D--------------------------------------------------------------------|
A--------------------------------------------------------------------|
E--------------------------------------------------------------------| x2

Guitar 1 + Guitar 2

e-x-x-x-x-x-x-x-x-x-x-x-x-x-x-x--|
B-x-x-x-x-x-x-x-x-x-x-x-x-x-x-x--|
G-x-x-x-x-x-x-x-x-x-x-x-x-x-x-x--|
D-x=x-x-x-x-x-x-x-x-x-x-x-x-x-x--|
A-x-x-x-x-x-x-x-x-x-x-x-x-x-x-x--|
E-x-x-x-x-x-x-x-x-x-x-x-x-x-x-x--|

Chorus

Guitar 1 + Guitar 2

e--------------------------|
B--------------------------|
G------7-7-------5-5--4-4--|
D-7-7--7-7--5-5--5-5--4-4--|
A-7-7--5-5--5-5--3-3--2-2--|
E-5-5-------3-3------------| x4

Guitar 3

e----17----17----17----17----17----17----17----17----17--| Throughout
B-17----17----17----17----17----17----17----17----17-----| Chorus.
G--------------------------------------------------------|
D--------------------------------------------------------|
A--------------------------------------------------------|
E--------------------------------------------------------|

Verse 2

Guitar 1

e--------------------------|
B--------------------------|
G------7-7-------5-5--4-4--|
D-7-7--7-7--5-5--5-5--4-4--|
A-7-7--5-5--5-5--3-3--2-2--|
E-5-5-------3-3------------| x4

Then

Guitar 1

e--------------------------|
B--------------------------|
G------7-7-------5-5--4-4--|
D-7-7--7-7--5-5--5-5--4-4--|
A-7-7--5-5--5-5--3-3--2-2--|
E-5-5-------3-3------------| x4

Guitar 2

e--------------------------|
B--------------------------|
G------7-7-------5-5--4-4--|
D-7-7--7-7--5-5--5-5--4-4--|
A-7-7--5-5--5-5--3-3--2-2--|
E-5-5-------3-3------------| x4

Pre-Chorus

Guitar 1

e-----------------------------------------------------|
B-----------------------------------------------------|
G-----------------------------------------------------|
D-3-3-3-3-3-3-3-3-3-3-3-3--5-5-5-5-5-5-5-5-5-5-5-5-5--|
A-3-3-3-3-3-3-3-3-3-3-3-3--5-5-5-5-5-5-5-5-5-5-5-5-5--|
E-1-1-1-1-1-1-1-1-1-1-1-1--3-3-3-3-3-3-3-3-3-3-3-3-3--| x2
[ Tab from: http://www.guitaretab.com/s/stereophonics/96631.html ]
Guitar 2

e----12----12----12----12----12----12----12----12----12----12----12--|
B-13----13----13----13----13----13----15----15----15----15----15-----|
G--------------------------------------------------------------------|
D--------------------------------------------------------------------|
A--------------------------------------------------------------------|
E--------------------------------------------------------------------| x2

Guitar 1 + Guitar 2

e-x-x-x-x-x-x-x-x-x-x-x-x-x-x-x--|
B-x-x-x-x-x-x-x-x-x-x-x-x-x-x-x--|
G-x-x-x-x-x-x-x-x-x-x-x-x-x-x-x--|
D-x=x-x-x-x-x-x-x-x-x-x-x-x-x-x--|
A-x-x-x-x-x-x-x-x-x-x-x-x-x-x-x--|
E-x-x-x-x-x-x-x-x-x-x-x-x-x-x-x--|

Chorus

Guitar 1 + Guitar 2

e--------------------------|
B--------------------------|
G------7-7-------5-5--4-4--|
D-7-7--7-7--5-5--5-5--4-4--|
A-7-7--5-5--5-5--3-3--2-2--|
E-5-5-------3-3------------| x4

Guitar 3

e----17----17----17----17----17----17----17----17----17--| Throughout
B-17----17----17----17----17----17----17----17----17-----| Chorus.
G--------------------------------------------------------|
D--------------------------------------------------------|
A--------------------------------------------------------|
E--------------------------------------------------------|

Bridge 1

Guitar 1

With a weird effect

e---------3-3--3--|
B-1-1--1--3-3--3--|
G-2-2--0--0-0--0--|
D-3-3--3--0-0--0--|
A-3-3--3--x-x--x--|
E---------3-3--3--| x2

On Youtube (http://www.youtube.com/watch?v=ZBQRRPUA3xs) This is played with guitar but 
the record its a vocal melody.

e---------------------------------------------|
B-8h10p8-8-5h8p5-5-3h5p3-1--8/10-10/12-12/13--|
G---------------------------------------------|
D---------------------------------------------|
A---------------------------------------------|
E---------------------------------------------| x2

Chorus

Guitar 1 + Guitar 2

e--------------------------|
B--------------------------|
G------7-7-------5-5--4-4--|
D-7-7--7-7--5-5--5-5--4-4--|
A-7-7--5-5--5-5--3-3--2-2--|
E-5-5-------3-3------------| x4

Guitar 3

e----17----17----17----17----17----17----17----17----17--| Throughout
B-17----17----17----17----17----17----17----17----17-----| Chorus.
G--------------------------------------------------------|
D--------------------------------------------------------|
A--------------------------------------------------------|
E--------------------------------------------------------|

Bridge 2

Guitar 1 + Guitar 2

e-------------------------------------------------------|
B-------------------------------------------------------|
G-------------------------------------------------------|
D-3-3-3-3-3-3-3-3-3-3-3-3-3--5-5-5-5-5-5-5-5-5-5-5-5-5--|
A-3-3-3-3-3-3-3-3-3-3-3-3-3--5-5-5-5-5-5-5-5-5-5-5-5-5--|
E-1-1-1-1-1-1-1-1-1-1-1-1-1--3-3-3-3-3-3-3-3-3-3-3-3-3--| x2

e-x-x-x-x-x-x-x-x-x-x-x-x-x-x-x--|
B-x-x-x-x-x-x-x-x-x-x-x-x-x-x-x--|
G-x-x-x-x-x-x-x-x-x-x-x-x-x-x-x--|
D-x-x-x-x-x-x-x-x-x-x-x-x-x-x-x--|
A-x-x-x-x-x-x-x-x-x-x-x-x-x-x-x--|
E-x-x-x-x-x-x-x-x-x-x-x-x-x-x-x--|

Outro

Guitar 1 + Guitar 2

e--------------------------|
B--------------------------|
G------7-7-------5-5--4-4--|
D-7-7--7-7--5-5--5-5--4-4--|
A-7-7--5-5--5-5--3-3--2-2--|
E-5-5-------3-3------------| x2

e-x-x-x-x-x-x-x-x-x-x-x-x--|
B-x-x-x-x-x-x-x-x-x-x-x-x--|
G-x-x-x-x-x-x-x-x-x-x-x-x--|
D-x-x-x-x-x-x-x-x-x-x-x-x--|
A-x-x-x-x-x-x-x-x-x-x-x-x--|
E-x-x-x-x-x-x-x-x-x-x-x-x--|
Related for Pass The Buck tab