Guitaretab - guitar tabs
Song name
# A B C D E F G H I J K L M N O P Q R S T U V W X Y Z

Stereophonics - Ladyluck tab

LadyLuck-Stereophonics

Capo 2nd Fret

Guitar Chords

All relative to Capo!

        EADGBe

Am:     x02210
Em:     022000
F :     x3321x
Fsus 2: x3301x

Intro

Guitar 1

e-0-0-0-0--0-0-0-0-0--x-x-x-x-x-x-x-x-x-x-x-x-x-x-x-x-x-x-x-x-x--|
B-1-1-1-1--0-0-0-0-0--1-1-1-1-1-1-1-1-1-1-1-1-1-1-1-1-1-1-1-1-1--|
G-2-2-2-2--0-0-0-0-0--2-2-2-2-2-2-2-0-0-0-0-2-2-2-2-2-2-0-0-0-0--|
D-2-2-2-2--2-2-2-2-2--3-3-3-3-3-3-3-3-3-3-3-3-3-3-3-3-3-3-3-3-3--|
A-0-0-0-0--2-2-2-2-2--3-3-3-3-3-3-3-3-3-3-3-3-3-3-3-3-3-3-3-3-3--|
E-x-x-x-x--0-0-0-0-0--x-x-x-x-x-x-x-x-x-x-x-x-x-x-x-x-x-x-x-x-x--|

Guitar 2

e-------------------------------------------|
B-10-10-10-10-10------------12-12-12-12-12--| Throughout Intro
G-----------------7-7-7-7-7-----------------|
D-------------------------------------------|
A-------------------------------------------|
E-------------------------------------------|

Verse

Guitar 1

e-0-0-0-0--0-0-0-0-0--x-x-x-x-x-x-x-x-x-x-x-x-x-x-x-x-x-x-x-x-x--|
B-1-1-1-1--0-0-0-0-0--1-1-1-1-1-1-1-1-1-1-1-1-1-1-1-1-1-1-1-1-1--|
G-2-2-2-2--0-0-0-0-0--2-2-2-2-2-2-2-0-0-0-0-2-2-2-2-2-2-0-0-0-0--|
D-2-2-2-2--2-2-2-2-2--3-3-3-3-3-3-3-3-3-3-3-3-3-3-3-3-3-3-3-3-3--|
A-0-0-0-0--2-2-2-2-2--3-3-3-3-3-3-3-3-3-3-3-3-3-3-3-3-3-3-3-3-3--|
E-x-x-x-x--0-0-0-0-0--x-x-x-x-x-x-x-x-x-x-x-x-x-x-x-x-x-x-x-x-x--|

About Halfway Through The Verse Guitar 2 Enters:

e------------|
B-10-----12--| Continues throughout the verse
G-----7------|
D------------|
A------------|
E------------|

Chorus
[ Tab from: http://www.guitaretab.com/s/stereophonics/97351.html ]
Guitar 1

e-0-0-0-0--0-0-0-0-0--x-x-x-x-x-x-x-x-x-x-x-x-x-x-x-x-x-x-x-x-x--|
B-1-1-1-1--0-0-0-0-0--1-1-1-1-1-1-1-1-1-1-1-1-1-1-1-1-1-1-1-1-1--|
G-2-2-2-2--0-0-0-0-0--2-2-2-2-2-2-2-0-0-0-0-2-2-2-2-2-2-0-0-0-0--|
D-2-2-2-2--2-2-2-2-2--3-3-3-3-3-3-3-3-3-3-3-3-3-3-3-3-3-3-3-3-3--|
A-0-0-0-0--2-2-2-2-2--3-3-3-3-3-3-3-3-3-3-3-3-3-3-3-3-3-3-3-3-3--|
E-x-x-x-x--0-0-0-0-0--x-x-x-x-x-x-x-x-x-x-x-x-x-x-x-x-x-x-x-x-x--|

Guitar 2

e-------------------------------------------|
B-10-10-10-10-10------------12-12-12-12-12--| Throughout Chorus
G-----------------7-7-7-7-7-----------------|
D-------------------------------------------|
A-------------------------------------------|
E-------------------------------------------|

Bridge

Guitar 1

e-0-0-0-0--0-0-0-0-0--x-x-x-x-x-x-x-x-x-x-x-x-x-x-x-x-x-x-x-x-x--|
B-1-1-1-1--0-0-0-0-0--1-1-1-1-1-1-1-1-1-1-1-1-1-1-1-1-1-1-1-1-1--|
G-2-2-2-2--0-0-0-0-0--2-2-2-2-2-2-2-0-0-0-0-2-2-2-2-2-2-0-0-0-0--|
D-2-2-2-2--2-2-2-2-2--3-3-3-3-3-3-3-3-3-3-3-3-3-3-3-3-3-3-3-3-3--|
A-0-0-0-0--2-2-2-2-2--3-3-3-3-3-3-3-3-3-3-3-3-3-3-3-3-3-3-3-3-3--|
E-x-x-x-x--0-0-0-0-0--x-x-x-x-x-x-x-x-x-x-x-x-x-x-x-x-x-x-x-x-x--|

Guitar 2

e-------------------------------------------|
B-10-10-10-10-10------------12-12-12-12-12--| Throughout Bridge
G-----------------7-7-7-7-7-----------------|
D-------------------------------------------|
A-------------------------------------------|
E-------------------------------------------|

And Thats About It You Can Work Out The Order Yourselves
Related for Ladyluck tab