Song name
# A B C D E F G H I J K L M N O P Q R S T U V W X Y Z

Stereophonics - Soldiers Make Good Targets tab

Soldiers Make Good Targets-Stereophonics

Intro/Verse

e-------------------------------------------------------------| As Many 
B-------------------------------------------------------------| Times As
G-------------------------------------------------------------| Neccesary.
D-------------------------------------------------------------|
A-5h7-7-7-7p5-5h7-7-7-7p5-5h7-7-7-7p5-------------------------|
E-0-0-0-0-0-0-0-0-0-0-0-0-0-0-0-0-0-0--6-6-6-6-6-6-5-5-5-5-5--|

Pre-Chorus

'You, Shoot,....'
 Guitar 1
e---------------------------------------------------------------|
B---------------------------------------------------------------|
G---------------------------------------------------------------|
D---------------------------------------------------------------|
A-5-5--8-8-8--7-7-7--5-5--8-8-8--7-7-7--5-5--8-8-8--7-7-7--5-5--|
E-3-3--6-6-6--5-5-5--3-3--6-6-6--5-5-5--3-3--6-6-6--5-5-5--3-3--|

Guitar 2
I Think He Uses The Effect Pedal That makes the Guitar Sound Like A Police Siren.

e------|
B------|
G-7gb--| 
D------|
A------|
E------| x4

Chorus

e--------------------------------------------------|
B--------------------------------------------------|
G--------------------------------------------------|
D--------------------------------------------------|
A-5h7-7-7-7p5-5h7-7-7-7p5-5h7-7-7-7p5-5h7-7-7-7p5--|
E-0-0-0-0-0-0-0-0-0-0-0-0-0-0-0-0-0-0-0-0-0-0-0-0--|

e-------------------------------------------|
B-------------------------------------------|
G-------------------------------------------|
D-------------------------------------------|
A-5/7-7-7-7-5-5/7-7-7-7-5-5/7b-7b-7b-7b-7b--|
E-3/5-5-5-5-3-3/5-5-5-5-3-3/5b-5b-5b-5b-5b--| x2

Guitar 2

e--------------------------------------------------|
B--------------------------------------------------|
G--------------------------------------------------|
D--------------------------------------------------|
A-5h7-7-7-7p5-5h7-7-7-7p5-5h7-7-7-7p5-5h7-7-7-7p5--|
E-0-0-0-0-0-0-0-0-0-0-0-0-0-0-0-0-0-0-0-0-0-0-0-0--|

e-----------------------------------------|
B-----------------------------------------|
G-----------------------------------------|
D-5h7-7-7-7p5-5h7-7-7-7p5-7b-7b-7b-7b-7b--|
A-0-0-0-0-0-0-0-0-0-0-0-0-x--x--x--x--x---|
E-------------------------5b-5b-5b-5b-5b--|

Verse 2

Guitar 1

e-------------------------------------------------------------| As Many 
B-------------------------------------------------------------| Times As
G-------------------------------------------------------------| Neccesary.
D-------------------------------------------------------------|
A-5h7-7-7-7p5-5h7-7-7-7p5-5h7-7-7-7p5-------------------------|
E-0-0-0-0-0-0-0-0-0-0-0-0-0-0-0-0-0-0--6-6-6-6-6-6-5-5-5-5-5--|

Guitar 2

e-x-x-x-x-12-12-12x-x-x-x-12-12-12x-x--|
B-x-x-x-x-12-12-12x-x-x-x-12-12-12x-x--| As Many Times As Neccesary. 
G-x-x-x-x-12-12-12x-x-x-x-12-12-12x-x--|
D-x-x-x-x-12-12-12x-x-x-x-12-12-12x-x--|
A-x-x-x-x-12-12-12x-x-x-x-12-12-12x-x--|
E-x-x-x-x-x-x-x-x-x-x-x-x-x-x-x-x-x-x--|

Guitar 3

Fill 1-played twice

e------------------------------------|
B------------------------------------|
G------------------------------------|
D-/12-12-12-12-12-12h14-14-14-14p12--|
A------------------------------------|
E------------------------------------|

Fill 2-Played Third Time

e----------------------------------------------------------|
B----------------------------------------------------------|
G----------------------------------------------------------|
D----------------------------------------------------------|
A-12h14-14h17--12h14-14h17--12h14-14h17--14-12-14-12-10/7--|
E----------------------------------------------------------|

Pre-Chorus

'You, Shoot,....'
 Guitar 1
e---------------------------------------------------------------|
B---------------------------------------------------------------|
G---------------------------------------------------------------|
D---------------------------------------------------------------|
A-5-5--8-8-8--7-7-7--5-5--8-8-8--7-7-7--5-5--8-8-8--7-7-7--5-5--|
E-3-3--6-6-6--5-5-5--3-3--6-6-6--5-5-5--3-3--6-6-6--5-5-5--3-3--|

Guitar 2
I Think He Uses The Effect Pedal That makes the Guitar Sound Like A Police Siren.

e------|
B------|
G-7gb--|
D------|
A------|
E------| x4

Chorus

e--------------------------------------------------|
B--------------------------------------------------|
G--------------------------------------------------|
D--------------------------------------------------|
A-5h7-7-7-7p5-5h7-7-7-7p5-5h7-7-7-7p5-5h7-7-7-7p5--|
E-0-0-0-0-0-0-0-0-0-0-0-0-0-0-0-0-0-0-0-0-0-0-0-0--|

e-------------------------------------------|
B-------------------------------------------|
G-------------------------------------------|
D-------------------------------------------|
A-5/7-7-7-7-5-5/7-7-7-7-5-5/7b-7b-7b-7b-7b--|
E-3/5-5-5-5-3-3/5-5-5-5-3-3/5b-5b-5b-5b-5b--| x2

Guitar 2

e--------------------------------------------------|
B--------------------------------------------------|
G--------------------------------------------------|
D--------------------------------------------------|
A-5h7-7-7-7p5-5h7-7-7-7p5-5h7-7-7-7p5-5h7-7-7-7p5--|
E-0-0-0-0-0-0-0-0-0-0-0-0-0-0-0-0-0-0-0-0-0-0-0-0--|

e-----------------------------------------|
B-----------------------------------------|
G-----------------------------------------|
D-5h7-7-7-7p5-5h7-7-7-7p5-7b-7b-7b-7b-7b--|
A-0-0-0-0-0-0-0-0-0-0-0-0-0-0-0-0-0-0-0---|
E-----------------------------------------| x2

Solo

Guitar 1

e------------------------------------------------|
B-15b~~~~~----------------------------15b~~~~~~--|
G------------14b~~~~~~~--11b~~~~~~~~-------------|
D------------------------------------------------|
A------------------------------------------------|
E------------------------------------------------|

e-----------------------------------------|
B-----------------------------------------|
G--------------------12b------------------|
D-------------14----------14-12----12-14--|
A-12h14-14h17----17-------------14--------|
E-----------------------------------------| x3

e---------------------------------------------------|
B---------------------------------------------------|
G---------------------14b-14b-14b-14b-14b-12h14-12--|
D--------------14-----------------------------------|
A-12h14--14h17----17--------------------------------|
E---------------------------------------------------|

Guitar 2

e----------------------|
B----------------------|
G----------------------|
D----------------------|
A-14--12--9--12--8--5--| 
E-12--10--7--10--6--3--| x8

Chorus

e--------------------------------------------------|
B--------------------------------------------------|
G--------------------------------------------------|
D--------------------------------------------------|
A-5h7-7-7-7p5-5h7-7-7-7p5-5h7-7-7-7p5-5h7-7-7-7p5--|
E-0-0-0-0-0-0-0-0-0-0-0-0-0-0-0-0-0-0-0-0-0-0-0-0--|

e-------------------------------------------|
B-------------------------------------------|
G-------------------------------------------|
D-------------------------------------------|
A-5/7-7-7-7-5-5/7-7-7-7-5-5/7b-7b-7b-7b-7b--|
E-3/5-5-5-5-3-3/5-5-5-5-3-3/5b-5b-5b-5b-5b--| x2

Guitar 2

e--------------------------------------------------|
B--------------------------------------------------|
G--------------------------------------------------|
D--------------------------------------------------|
A-5h7-7-7-7p5-5h7-7-7-7p5-5h7-7-7-7p5-5h7-7-7-7p5--|
E-0-0-0-0-0-0-0-0-0-0-0-0-0-0-0-0-0-0-0-0-0-0-0-0--|

e-----------------------------------------|
B-----------------------------------------|
G-----------------------------------------|
D-5h7-7-7-7p5-5h7-7-7-7p5-7b-7b-7b-7b-7b--|
A-0-0-0-0-0-0-0-0-0-0-0-0-x--x--x--x--x---|
E-------------------------5b-5b-5b-5b-5b--| x4

After 2 times Gutiar 3 enters and plays the below twice.

Guitar 3

e----------12------------12-------------12------------------|
B----------12------------12-------------12------------------|
G-7gbr-----12--7gbr------12--7gbr-------12--7b-7b-7b-7b-7b--|
D-----------------------------------------------------------|
A-----------------------------------------------------------|
E-----------------------------------------------------------| x2

Tab Notation

h-Hammer-On
p-Pull-Off
b-Bend
gb-Gradual Bend
gbr-Gradual Bend Then Release
/-Slide
Tap to rate this tab
 
# A B C D E F G H I J K L M N O P Q R S T U V W X Y Z