Song name
# A B C D E F G H I J K L M N O P Q R S T U V W X Y Z

Stereopony - Tsukiakari No Michishirube tab

Tsukiakari no Michishirube by Steropony

Only thing missing is the instrumental at the end which will be added shortly

-Bearsanity


E|---5-4-2-0-2-2-0-2-0--------5-4-2-0-2-2-0-4-5--5-5-9-7-5-4-5-5-4-5-7-9--2-7-4----5-4-2-0-2-2-0-2-0-|
B|-2-------------------2--2-2----------------------------------------------------2-------------------|
G|---------------------------------------------------------------------------------------------------|
D|---------------------------------------------------------------------------------------------------|
A|---------------------------------------------------------------------------------------------------|
E|---------------------------------------------------------------------------------------------------|

E|-2-0--------5-4-2-0-2-2-0-4-5--5-5-9-7-5-4-5-5-4-5-7-9--2-7-4-2-0h2-2-7-4-2-0h2-|
B|-----2--2-2---------------------------------------------------------------------|
G|--------------------------------------------------------------------------------|
D|--------------------------------------------------------------------------------|
A|--------------------------------------------------------------------------------|
E|--------------------------------------------------------------------------------|

E|-2-0-2-0-2-4-5-0-0--2-0-2-0-2-----0--2-0-2-0-2-4-5-0-0--0-------0-2-2-2-0-2-4-5-|
B|------------------------------2-2-------------------------3-2-3-----------------|
G|--------------------------------------------------------------------------------|
D|--------------------------------------------------------------------------------|
A|--------------------------------------------------------------------------------|
E|--------------------------------------------------------------------------------|

E|-5-5-5-5-5-4-2-0-5-5-5-5-5-4-2-0--------0-2-5-4-2-0--0-0---0-2-2-0-2-4-|
B|----------------------------------3-2-3------------------4-------------|
G|-----------------------------------------------------------------------|
D|-----------------------------------------------------------------------|
A|-----------------------------------------------------------------------|
E|-----------------------------------------------------------------------|


E|---5-4-2-0-2-2-0-2-0--------5-4-2-0-2-2-0-4-5--5-5-9-7-5-4-5-5-4-5-7-9--2-7-4----5-4-2-0-2-2-0-2-0-|
B|-2-------------------2--2-2----------------------------------------------------2-------------------|
G|---------------------------------------------------------------------------------------------------|
D|---------------------------------------------------------------------------------------------------|
A|---------------------------------------------------------------------------------------------------|
E|---------------------------------------------------------------------------------------------------|

E|-2-0--------5-4-2-0-2-2-0-4-5--5-5-9-7-5-4-5-5-4-5-7-9--2-7-4-2-0h2-2-7-4-2-0h2-|
B|-----2--2-2---------------------------------------------------------------------|
G|--------------------------------------------------------------------------------|
D|--------------------------------------------------------------------------------|
A|--------------------------------------------------------------------------------|
E|--------------------------------------------------------------------------------|

E|-2-0-2-0-2-4-5-0-0--2-0-2-0-2-----0--2-0-2-0-2-4-5-0-0--0-------0-2-2-2-0-2-4-5-|
B|------------------------------2-2-------------------------3-2-3-----------------|
G|--------------------------------------------------------------------------------|
D|--------------------------------------------------------------------------------|
A|--------------------------------------------------------------------------------|
E|--------------------------------------------------------------------------------|

E|-5-5-5-5-5-4-2-0-5-5-5-5-5-4-2-0--------0-2-5-4-2-0--0-0---0-2-2-0-2-4-|
B|----------------------------------3-2-3------------------4-------------|
G|-----------------------------------------------------------------------|
D|-----------------------------------------------------------------------|
A|-----------------------------------------------------------------------|
E|-----------------------------------------------------------------------|


E|---5-4-2-0-2-2-0-2-0--------5-4-2-0-2-2-0-4-5--5-5-9-7-5-4-5-5-4-5-7-9--2-7-4----5-4-2-0-2-2-0-2-0-|
B|-2-------------------2--2-2----------------------------------------------------2-------------------|
G|---------------------------------------------------------------------------------------------------|
D|---------------------------------------------------------------------------------------------------|
A|---------------------------------------------------------------------------------------------------|
E|---------------------------------------------------------------------------------------------------|

E|-2-0--------5-4-2-0-2-2-0-4-5--5-5-9-7-5-4-5-5-4-5-7-9--2-7-4-2-0h2-2-7-4-2-0h2-|
B|-----2--2-2---------------------------------------------------------------------|
G|--------------------------------------------------------------------------------|
D|--------------------------------------------------------------------------------|
A|--------------------------------------------------------------------------------|
E|--------------------------------------------------------------------------------|

E|-2-5-4-2-0-2--2-5-4-2-0-4--2-0-0-4--------0-2-4-5--2-5-4-2-0-2--2-4-2-5-4-2-2--2-4-2-5-4-2-2--|
B|-----------------------------------3-3h2------------------------------------------------------|
G|----------------------------------------------------------------------------------------------|
D|----------------------------------------------------------------------------------------------|
A|----------------------------------------------------------------------------------------------|
E|----------------------------------------------------------------------------------------------|

E|-2-4-2-5-4-2-7-7-7-4-|
B|---------------------|
G|---------------------|
D|---------------------|
A|---------------------|
E|---------------------|

E|---5-4-2-0-2-2-0-2-0--------5-4-2-0-2-2-0-4-5--5-5-9-7-5-4-5-5-4-5-7-9--2-7-4----5-4-2-0-2-2-0-2-0-|
B|-2-------------------2--2-2----------------------------------------------------2-------------------|
G|---------------------------------------------------------------------------------------------------|
D|---------------------------------------------------------------------------------------------------|
A|---------------------------------------------------------------------------------------------------|
E|---------------------------------------------------------------------------------------------------|

E|-2-0--------5-4-2-0-2-2-0-4-5--5-5-9-7-5-4-5-5-4-5-7-9--2-7-4-2-0h2-2-7-4-2-0h2-|
B|-----2--2-2---------------------------------------------------------------------|
G|--------------------------------------------------------------------------------|
D|--------------------------------------------------------------------------------|
A|--------------------------------------------------------------------------------|
E|--------------------------------------------------------------------------------|
Tap to rate this tab
# A B C D E F G H I J K L M N O P Q R S T U V W X Y Z