Song name
# A B C D E F G H I J K L M N O P Q R S T U V W X Y Z

Stereos - Summer Girl tab

-------------------------------------------------------------------------------
			     Summer Girl - Stereos
-------------------------------------------------------------------------------
Tabbed by: green_day_101

Tuning: Standard (EADGBE)

Verse 1
e|------------------------|------------------------------------------|
B|------------------------|------------------------------------------|
G|-----4------------------|-----4-----------------4------------------|
D|-2---4---4------6~--4~--|-2---4---4---4-4-6-2---4---4------6~--4~--|
A|-2---2---4------6~--4~--|-2---2---4---4-4-6-2---2---4------6~--4~--|
E|-0-------2------4~--2~--|-0-------2---2-2-4-0-------2------4~--2~--|

e|-------------|
B|-------------|
G|-----4-------|
D|-2---4---4~--|
A|-2---2---4~--|
E|-0-------2~--|


Chorus
e|----------------------------------|
B|----------------------------------|
G|--------4444----------------------|
D|-2222---4444---4444---6~-4~---x2--|
A|-2222---2222---4444---6~-4~-------|
E|-0000----------2222---4~-2~-------|


Verse 2
e|------------|-----------------|------------------------------|
B|------------|-----------------|------------------------------|
G|-----4------|-----------------|-----------4------------------|
D|-2---4---4--|---(Bass-Part)---|-4-4-6-2---4---4------6~--4~--|
A|-2---2---4--|-----------------|-4-4-6-2---2---4------6~--4~--|
E|-0-------2--|-----------------|-2-2-4-0-------2------4~--2~--|

e|-------------|
B|-------------|
G|-----4-------|
D|-2---4---4~--|
A|-2---2---4~--|
E|-0-------2~--|


Chorus
e|----------------------------------|
B|----------------------------------|
G|--------4444----------------------|
D|-2222---4444---4444---6~-4~---x4--|
A|-2222---2222---4444---6~-4~-------|
E|-0000----------2222---4~-2~-------|


Bridge


Then: "Check it, check it, bounce Let me see ya move" 
e|--------------------------------|----------------------------------------|
B|--------------------------------|----------------------------------------|
G|---------4--44------------------|---------4--44--------------------------|
D|-2--22---4--44---4--44---6~-4~--|-2--22---4--44---4~---6~-4~-------------|
A|-2--22---2--22---4--44---6~-4~--|-2--22---2--22---4~---6~-4~-------------|
E|-0--00-----------2--22---4~-2~--|-0--00-----------2~---4~-2~-------------|

e|--------------------------------|---------------------|
B|--------------------------------|---------------------|
G|---------4--44------------------|---------4--44-------|
D|-2--22---4--44---4--44---6~-4~--|-2--22---4--44---4~--|
A|-2--22---2--22---4--44---6~-4~--|-2--22---2--22---4~--|
E|-0--00-----------2--22---4~-2~--|-0--00-----------2~--|


"I'll never see her again"
e|-----|
B|-----|
G|-----|
D|-4~--|
A|-4~--|
E|-2~--|


Chorus
e|----------------------------------|
B|----------------------------------|
G|--------4444----------------------|
D|-2222---4444---4444---6~-4~---x4--|
A|-2222---2222---4444---6~-4~-------|
E|-0000----------2222---4~-2~-------|





| /  slide up
| \  slide down
| h  hammer-on
| p  pull-off
| ~  vibrato
| +  harmonic
| x  Mute note
===============================================================================
Tap to rate this tab
# A B C D E F G H I J K L M N O P Q R S T U V W X Y Z