Song name
# A B C D E F G H I J K L M N O P Q R S T U V W X Y Z

Stereos - Throw Ya Hands Up tab

This is my first tab, so I'm not sure about it. But in the videos it looks like it goes like this.

Chorus (Guitar 1)
E--------------|--------------|
B--------------|--------------|
G--------4-----|--------------|
D--2-----4-----|--4-----6-----|  x4
A--2-x4--2-x4--|--4-x4--6-x4--|
E--0-----------|--2-----4-----|

Chorus (Guitar 2)
E----------------|-----------------------|
B----------------|-----------------------|
G--11-----8------|--6------8------4------|
D--x--x8--x--x8--|--x--x8--x--x4--x--x4--|  x4
A--9------6------|--4------6------2------|
E----------------|-----------------------|


Verse 1(bass, guitar live)
E--------------|--------------------|
B--------------|--------------------|
G--------------|--------------------|
D--------------|--------------------| 
A--------2-----|--------------------|
E--0----0------|--2---2-4--4-2--2-0-|

E--------------|--------------------|
B--------------|--------------------|
G--------------|--------------------|
D--------------|--------------------| 
A--------2-----|-2------------------|
E-------0------|--2---2-4--4-2------|


Chorus (Guitar 1)
E--------------|--------------|
B--------------|--------------|
G--------4-----|--------------|
D--2-----4-----|--4-----6-----|  x4
A--2-x4--2-x4--|--4-x4--6-x4--|
E--0-----------|--2-----4-----|

Chorus (Guitar 2)
E----------------|-----------------------|
B----------------|-----------------------|
G--11-----8------|--6------8------4------|
D--x--x8--x--x8--|--x--x8--x--x4--x--x4--|  x4
A--9------6------|--4------6------2------|
E----------------|-----------------------|


Verse 2(bass, guitar live)
E--------------|--------------------|
B--------------|--------------------|
G--------------|--------------------|
D--------------|--------------------| 
A--------2-----|--------------------|
E--0----0------|--2---2-4--4-2--2-0-|

E--------------|--------------------|
B--------------|--------------------|
G--------------|--------------------|
D--------------|--------------------| 
A--------2-----|-2------------------|
E-------0------|--2-----------------|


Chorus (Guitar 1)
E--------------|--------------|
B--------------|--------------|
G--------4-----|--------------|
D--2-----4-----|--4-----6-----|  x4
A--2-x4--2-x4--|--4-x4--6-x4--|
E--0-----------|--2-----4-----|

Chorus (Guitar 2)
E----------------|-----------------------|
B----------------|-----------------------|
G--11-----8------|--6------8------4------|
D--x--x8--x--x8--|--x--x8--x--x4--x--x4--|  x4
A--9------6------|--4------6------2------|
E----------------|-----------------------|


Rap-part

Verse 2(bass, guitar)
E-------------------|-------------------|
B-------------------|-------------------|
G----------------- -|-------------------|
D------------6--4---|------------6--4---| 
A------------6--4---|------------6--4---|
E--0(bass)---4--2---|--0(bass)---4--2---|

E-------------------|--------------------|
B-------------------|--------------------|
G-------------------|--------------------|
D------------6--4---|------------6-------| 
A------------6--4---|------------6-------|
E--0(bass)---4--2---|--0(bass)---4-------|


Chorus (drums only)

Chorus (Guitar 1)
E--------------|--------------|
B--------------|--------------|
G--------4-----|--------------|
D--2-----4-----|--4-----6-----|  x2
A--2-x4--2-x4--|--4-x4--6-x4--|
E--0-----------|--2-----4-----|

Chorus (Guitar 2)
E----------------|-----------------------|
B----------------|-----------------------|
G--11-----8------|--6------8------4------|
D--x--x8--x--x8--|--x--x8--x--x4--x--x4--|  x2
A--9------6------|--4------6------2------|
E----------------|-----------------------|
Tap to rate this tab
 
# A B C D E F G H I J K L M N O P Q R S T U V W X Y Z