Song name
# A B C D E F G H I J K L M N O P Q R S T U V W X Y Z

Stereos - Give You Up tab

Song - Give You Up
Artist - Stereos
Difficulty - Very Easy


This Is They Beginning Chords. On The Album They Play Them On Piano.

|-------| |-------| |-------|
|-------| |-------| |-------|
|---7---| |-------| |-------|      x6
|---7---| |---2---| |---4---|
|---5---| |---2---| |---4---|
|-------| |---0---| |---2---|


And This Part Is The Chorus

|-------| |-------| |-------| |-------| |-------|
|-------| |-------| |-------| |-------| |-------|
|---7---| |-------| |-------| |---4---| |-------|      x4
|---7---| |---7---| |---2---| |---4---| |---4---|
|---5---| |---7---| |---2---| |---2---| |---4---|
|-------| |---5---| |---0---| |-------| |---2---|


When You Get To The Breakdown Just Play The Chorus But When I Play It I Palm Mute It

It Sounds Pretty Kewl

Also When You Get To The End When All The Say Is (Baby, Baby) Just Play The Chorus

And Thats Pretty Much It. If You Have Any Questions, Comments and or Corrections Just e-mail Me

ccc_crowkid@hotmail.com

PLEASE RATE!
THANX!
Tap to rate this tab
# A B C D E F G H I J K L M N O P Q R S T U V W X Y Z