Stereos - Butterflies tab

Song - Butterflies
Artist - Stereos
Album - Stereos
Tabbed By - coltRL11
Tuning - Standard


Ok, My Other Version Sucked So Here Is A Better One. Hope You Enjoy

INTRO

|-------||-------||-------||-------|
|-------||-------||-------||-------|
|---7---||-------||-------||-------|
|---7---||---7---||---2---||---4---|
|---5---||---7---||---2---||---4---|
|-------||---5---||---0---||---2---|



VERSE 1 (Just Continue The Same Chords Until You Get To The Pre-Chorus)

D                   A
When I'm beside you it's enough to blow my mind
B                            G
I heard you whisper that you wanted to be mine
And I was always hoping that I could find someone like you
The way you take my hand and the way you touch my face
It got me thinking that I don't wanna be no other place
It got me thinking that I have felt someone like you



PRE-CHORUS

|-------||-------||-------||-------|
|-------||-------||-------||-------|
|---7---||-------||-------||-------|
|---7---||---7---||---2---||---4---|
|---5---||---7---||---2---||---4---|
|-------||---5---||---0---||---2---|


|-------||-------||-------|
|-------||-------||-------|
|---7---||-------||-------|
|---7---||---7---||---2~--|
|---5---||---7---||---2~--|
|-------||---5---||---0~--|


CHORUS

|-------||-------||-------||-------|
|-------||-------||-------||-------|
|---7---||-------||-------||-------|
|---7---||---7---||---2---||---4---|
|---5---||---7---||---2---||---4---|
|-------||---5---||---0---||---2---|
 



Thats Pretty Much The Song Right There. You Just Repeat Everything A Few Times. 

Please Rate And Comment. Thank You. Hope You Like This Version Better Than My Last One.
Tap to rate this tab
 
# A B C D E F G H I J K L M N O P Q R S T U V W X Y Z