Song name
# A B C D E F G H I J K L M N O P Q R S T U V W X Y Z

Stereoside - Too High tab

    This is basically all the riffs involved in the song pretty easy to figure out I'd 
might be some errors or whatever. Tabbed this for a student of mine that needed it so 
is what I figured out by ear. enjoy.

                    Too High


                                                                      Stereoside


     Intro
     PM    PM PM PM PM PM PM PM    PM PM PM PM PM PM PM PM

E||-----------------------------|--------------------------|
B||-----------------------------|--------------------------|
G||-----------------------------|--------------------------|
D||--0-----0--0--0--0--0--3--3--|--3--3--3--3--5--5--5--5--|
A||--0-----0--0--0--0--0--3--3--|--3--3--3--3--5--5--5--5--|
D||--0-----0--0--0--0--0--3--3--|--3--3--3--3--5--5--5--5--|


  PM PM PM PM PM PM PM PM    PM PM PM PM PM PM PM PM

--------------------------|--------------------------|
--------------------------|--------------------------|
--------------------------|--------------------------|
--5--5--3--3--3--3--0--0--|--0--0--0--0--3--3--3--3--|
--5--5--3--3--3--3--0--0--|--0--0--0--0--3--3--3--3--|
--5--5--3--3--3--3--0--0--|--0--0--0--0--3--3--3--3--|


  PM PM

--------------------------|-----------------------|
--------------------------|-----------------------|
--------------------------|--7--7--7--7-----------|
--3--3--5--5--5--5--5--5--|-----------------------|
--3--3--5--5--5--5--5--5--|--5--5--5--5-----------|
--3--3--5--5--5--5--5--5--|-----------------------|


  Chorus riff
  PM          PM PM PM PM PM PM PM    PM PM PM PM PM PM PM PM

-----------------------------------|--------------------------|
-----------------------------------|--------------------------|
-----------------------------------|--------------------------|
--0-----------0--0--0--0--0--3--3--|--3--3--3--3--5--5--5--5--|
--0-----------0--0--0--0--0--3--3--|--3--3--3--3--5--5--5--5--|
--0-----------0--0--0--0--0--3--3--|--3--3--3--3--5--5--5--5--|


  PM PM PM PM PM

---------------------------|---------------------|
---------------------------|---------------------|
-----------------5--5s--7--|--7--7---------------|
--5--5--3--3--3------------|---------------------|
--5--5--3--3--3--3--3s--5--|--5--5---------------|
--5--5--3--3--3------------|---------------------|


    Verse 1
    PM      PM PM PM PM PM PM PM    PM PM PM PM PM PM PM PM

|--------------------------------|--------------------------|
|--------------------------------|--------------------------|
|*-------------------------------|--------------------------|
|*--0-------0--0--0--0--0--3--3--|--3--3--3--3--5--5--5--5--|
|---0-------0--0--0--0--0--3--3--|--3--3--3--3--5--5--5--5--|
|---0-------0--0--0--0--0--3--3--|--3--3--3--3--5--5--5--5--|


  PM PM PM PM PM PM PM PM    PM PM PM PM PM PM PM PM

--------------------------|--------------------------|
--------------------------|--------------------------|
--------------------------|--------------------------|
--5--5--3--3--3--3--0--0--|--0--0--0--0--3--3--3--3--|
--5--5--3--3--3--3--0--0--|--0--0--0--0--3--3--3--3--|
--5--5--3--3--3--3--0--0--|--0--0--0--0--3--3--3--3--|


  PM PM PM PM PM             PM PM PM          PM PM    PM

--------------------------|--------------------------|------------------------||
--------------------------|--------------------------|------------------------||
-----------------7--7--7--|-----------7--7--7--------|-----7--7--7-----------*||
--3--3--0--0--0-----------|--0--0--0-----------0--0--|--0--------------------*||
--3--3--0--0--0--5--5--5--|--0--0--0--5--5--5--0--0--|--0--5--5--5------------||
--3--3--0--0--0-----------|--0--0--0-----------0--0--|--0---------------------||


   Verse 2
   PM      PM PM PM PM PM PM PM    PM PM PM PM PM PM PM PM

--------------------------------|--------------------------|
--------------------------------|--------------------------|
*-------------------------------|--------------------------|
*--0-------0--0--0--0--0--3--3--|--3--3--3--3--5--5--5--5--|
---0-------0--0--0--0--0--3--3--|--3--3--3--3--5--5--5--5--|
---0-------0--0--0--0--0--3--3--|--3--3--3--3--5--5--5--5--|


  PM PM PM PM PM PM PM PM    PM PM PM PM PM PM PM PM

--------------------------|--------------------------|
--------------------------|--------------------------|
--------------------------|--------------------------|
--5--5--3--3--3--3--0--0--|--0--0--0--0--3--3--3--3--|
--5--5--3--3--3--3--0--0--|--0--0--0--0--3--3--3--3--|
--5--5--3--3--3--3--0--0--|--0--0--0--0--3--3--3--3--|


                               Breakdown
  PM PM
                         4x
---------------------------||---------------------------------|
---------------------------||---------------------------------|
--------------------------*||---------------------------------|
--3--3--5--5--5--5--5--5--*||--7---------7--7--7--7--7--7--7--|
--3--3--5--5--5--5--5--5---||--7---------7--7--7--7--7--7--7--|
--3--3--5--5--5--5--5--5---||--7---------7--7--7--7--7--7--7--|

--------------------------|---------------------------|
--------------------------|---------------------------|
--------------------------|--------5--5--5s--7--7--7--|
--5--5--5--5--5--5--5--5--|--0--0---------------------|
--5--5--5--5--5--5--5--5--|--0--0--3--3--3s--5--5--5--|
--5--5--5--5--5--5--5--5--|--0--0---------------------|

---------------------------|---------------------------|
---------------------------|---------------------------|
--------5--5--5s--7--7--7--|--------5--5--5s--7--7--7--|
--0--0---------------------|--0--0---------------------|
--0--0--3--3--3s--5--5--5--|--0--0--3--3--3s--5--5--5--|
--0--0---------------------|--0--0---------------------|

--------------------------|--------------------------|
--------------------------|--------------------------|
--------------------------|--------------------------|
--7--7--7--7--7--7--7--7--|--5--5--5--5--5--5--5--5--|
--7--7--7--7--7--7--7--7--|--5--5--5--5--5--5--5--5--|
--7--7--7--7--7--7--7--7--|--5--5--5--5--5--5--5--5--|


  Acoustic part

-------------------------------------|--------------------------|
-------------------------------------|--------------------------|
-------------------------------------|--------------------------|
--0-------------0--0--0--0--0--3--3--|--3--3--3--3--5--5--5--5--|
--0-------------0--0--0--0--0--3--3--|--3--3--3--3--5--5--5--5--|
--0-------------0--0--0--0--0--3--3--|--3--3--3--3--5--5--5--5--|

--------------------------|-----------------------||
--------------------------|-----------------------||
--------------------------|-----------------------||
--5--5--3--3--3--3--0--0--|--3----0--0--3---------||
--5--5--3--3--3--3--0--0--|--3----0--0--3---------||
--5--5--3--3--3--3--0--0--|--3----0--0--3---------||

Tablature Legend
----------------
L - tied note
x - dead note
g - grace note
(n) - ghost note
> - accentuded note
NH - natural harmonic
AH - artificial harmonic
TH - tapped harmonic
SH - semi harmonic
PH - pitch harmonic
h - hammer on
p - pull off
b - bend
br - bendRelease
pb - preBend
pbr - preBendRelease
brb - bendReleaseBend
\n/ - tremolo bar dip
\n - tremolo bar dive
-/n - tremolo bar Release up
/n\ - tremolo bar inverted dip
/n - tremolo bar return
-\n - tremolo bar Release down
S - shift slide
s - legato slide
/ -  slide into from below or out of upwards
\ -  slide into from above or out of downwards
~ - vibrato
W - wide vibrato
tr - trill
TP - tremolo picking
T - tapping
S - slap
P - pop
< - fade in
^ - brush up
v - brush down
Tap to rate this tab
 
# A B C D E F G H I J K L M N O P Q R S T U V W X Y Z