Song name
# A B C D E F G H I J K L M N O P Q R S T U V W X Y Z

Stereoside - So Long tab

Dedicated to Andy!


e-------------------|
b-------------------|
g-------3----2----5-|
d---0---3----2----5-|
a---0---1----0----3-|
d---0---------------|
    D5  Bb5  A5   C5


intro/verse
------------------------------------------------------------------|
-------3----------3-----------3-----------------------------------|
---2----2-2----2---2-2-----0---0-0---0-----0----------------------|
--0-0----0----0-0---0-----2-2---2---2-2---0-0---------------------|
-------------1-----------3---------3------------------------------|
-0---------------------------------------3------------------------|

chorus/solo progression

D5  Bb5  C5  Bb5  A5   D5   Bb5   A5   C5


pre-chorus
------------------------------------------------------------------|
------------------------------------------------------------------|
------------------------------------------------------------------|
------------------------------------------------------------------|
--0---------------------------------------------------------------|
--0------3-------3------------------------------------------------|
         ^       ^
         1/2 bends
Tap to rate this tab
 
# A B C D E F G H I J K L M N O P Q R S T U V W X Y Z