Song name
# A B C D E F G H I J K L M N O P Q R S T U V W X Y Z

Steriogram - Walkie Talkie Man tab

Walkie Talkie Man - Sterio gram

Intro:

|--------------------------------------------------------------------------|
|--------------------------------------------------------------------------|
|--------------------------------------------------------------------------|
|--------------------------------------------------------------------------|
|------------3-4-5-5-4-3-2-2-----------------------------------------------|
|-0-0-3-4-5-5----------------3-4-------------------------------------------|

Verse:

Pm.........................................................................
|--------------------------------------------------------------------------|
|--------------------------------------------------------------------------|
|--------------------------------------------------------------------------|
|--------------------------------------------------------------------------|
|-----------2--0--0--4--0---5--5--------2--2--0--0-------------------------|
|--0--0--3------------------------2--2-------------------------------------|


Chorus:

   E5      A5      D5     B5
|-------|-------|-------|-----------||
|-------|-------|-------|-----------||
|-------|-------|--7----|--4--------|| x3
|--2----|--7----|--7----|--4--------||
|--2----|--7----|--5----|--2--------||
|--0----|--5----|-------|-----------||

  E5       A5      D5
|-------|--------|------||
|-------|--------|------||
|-------|--------|--7---||
|--2----|--7-----|--7---||
|--2----|--7-----|--5---||
|--0----|--5-----|------||


Thanks for viewing





Tap to rate this tab
# A B C D E F G H I J K L M N O P Q R S T U V W X Y Z