Song name
# A B C D E F G H I J K L M N O P Q R S T U V W X Y Z

Steriogram - Walkie Talkie Man tab

-----------------------------------------------------------------------------
                             WALKIE TALKIE MAN - Steriogram
-----------------------------------------------------------------------------
Tabbed by: Seil Weiss
E-mail: seilweiss@gmail.com

Tuning: Standard (EADGBe)

NOTE: There are two versions of this song that differ in some parts.
To clarify, I'm tabbing this version:
http://www.youtube.com/watch?v=Gbcq9ieX3wU

Intro Riff                                                                x2

e|-----------------|-----------------|-----------------|------------------||
B|-----------------|-----------------|-----------------|-----------------o||
G|-----------------|-----------------|-----------------|------------------||
D|-----------------|-0-0-------------|-----------------|-0-0--------------||
A|---------0-0-3-4-|-----4-3-2-2-----|---------0-0-3-4-|-----4-3-2-2-2-2-o||
E|-0-0-3-4---------|-------------2-3-|-0-0-3-4---------|------------------||

Verse

  pm------------------------------|   pm-----------------------------------|
e|-----------------|-----------------|-----------------|-------------------|
B|-----------------|-----------------|-----------------|-------------------|
G|-----------------|-----------------|-----------------|-------------------|
D|-----------------|-0-0-----------0-|-----------------|-0-0-------4---0---|
A|-------2-0-0-4-0-|---------2-2-0-0-|-------2-0-0-4-0-|-----------2---0---|
E|-0-0-3-----------|-----2-2---------|-0-0-3-----------|-----2-2-----------|

  pm-----------------------------------------------------------------------|
e|-----------------|-----------------|-----------------|-------------------|
B|-----------------|-----------------|-----------------|-------------------|
G|-----------------|-----------------|-----------------|-------------------|
D|-----------------|-0-0-----------0-|-----------------|-0-0---------------|
A|-------2-0-0-4-0-|---------2-2-0-0-|-------2-0-0-4-0-|---------2-2-0-0---|
E|-0-0-3-----------|-----2-2---------|-0-0-3-----------|-----2-2-----------|

Chorus

e|-----------------|-----------------|-----------------|-----------------|
B|-----------------|-----------------|-----------------|-----------------|
G|-----------------|-7-7-7-7---------|-----------------|-x-7-7-7---------|
D|-2-2-2-2-7-7-7-7-|-7-7-7-7-9-9-9-9-|-2-2-2-2-7-7-7-7-|-x-7-7-7-x-9-9-9-|
A|-2-2-2-2-7-7-7-7-|-5-5-5-5-9-9-9-9-|-2-2-2-2-7-7-7-7-|-x-5-5-5-x-9-9-9-|
E|-0-0-0-0-5-5-5-5-|---------7-7-7-7-|-0-0-0-0-5-5-5-5-|---------x-7-7-7-|

                                                        pm--|
e|-----------------|-----------------|-----------------|-----------------|
B|-----------------|-----------------|-----------------|-----------------|
G|-----------------|-7-7-7-7---------|-----------------|-----7-7-7-7-7-7-|
D|-2-2-2-2-7-7-7-7-|-7-7-7-7-9-9-9-9-|-2-2-2-2-7-7-7-7-|-7-7-7-7-7-7-7-7-|
A|-2-2-2-2-7-7-7-7-|-5-5-5-5-9-9-9-9-|-2-2-2-2-7-7-7-7-|-5-5-5-5-5-5-5-5-|
E|-0-0-0-0-5-5-5-5-|---------7-7-7-7-|-0-0-0-0-5-5-5-5-|-----------------|

Pre-Bridge

e|-----------------|-----------------|-----------------|-----------------|
B|-----------------|-----------------|-----------------|-----------------|
G|-----------------|-----------------|-----------------|-----------------|
D|-------------1-2-|-3-3-2-1-0-0-----|---------0-0-3-4-|-5~~~~~~~~~~~~~~-|
A|-----1-2-3-3-----|-----------------|-0-0-3-4---------|-----------------|
E|-3-3-------------|-------------3-4-|-----------------|-----------------|

Bridge

e-------|-----------------|
B-------|-----------------|
G-------|-----------------|
D-------|-2-2-------------|
A-2-2-2-|-2-2-------------|
E-------|-0-0-------------|

Fade in using volume knob
e---------|-----------------|
B-3-<-----|--------------\--|
G-4-<-----|--------------\--|
D-4-<-----|--------------\--|
A---------|-----------------|
E---------|-----------------|

Outro Solo

e|-----------------|-----------------|-----------------|-----------------|
B|-----------------|-----------------|-----------------|-----10----------|
G|-----------------|-----------------|-7--9--7--9----9b|---------9br-----|
D|-----------------|------------7--9-|-----------------|-----------------|
A|-5---------------|-5--7--7/9-------|-----------------|-----------------|
E|-----------------|-----------------|-----------------|-----------------|

e|-----------------|-----------------|-----------------|
B|-----------------|-------------3---|-3---------------|
G|-7h9p7-----------|----\--------2---|-2---------------|
D|-----------------|-------------0---|-0---------------|
A|-----------------|-----------------|-----------------|
E|-----------------|-----------------|-----------------|


Song Flow:
- Intro Riff
- Verse
- Chorus
- Intro Riff (only x1, last measure is palm muted)
- Verse
- Chorus
- Pre-Bridge
- Bridge
- Chorus
- Intro Riff (on first time, last three notes on last measure are palm muted; the riff 
ends at the beginning of the third measure on the second time)
- Outro Solo


************************************

| /   slide up
| \   slide down
| h   hammer-on
| p   pull-off
| ~   vibrato
| x   Mute note
| b   Bend
| br  Bend release
| pm  Palm mute

************************************
Tap to rate this tab
 
# A B C D E F G H I J K L M N O P Q R S T U V W X Y Z