Song name
# A B C D E F G H I J K L M N O P Q R S T U V W X Y Z

Steriogram - Sing The Night Away tab

-------------------------------------------------------------------------------
			     Sing the Night Away - Steriogram
-------------------------------------------------------------------------------
Tabbed by:Me
Email:I should probly get one

Tuning:Standard(EADGBe)

e|-0-0-0-0-0-0-0-0---0-0-0-0--3-3-3-3---0-0-0-0-0-0-0-0---0-0-0-0--0-0-0-0---|
B|-5-5-5-5-5-5-5-5---4-4-4-4--5-5-5-5---1-1-1-1-1-1-1-1---0-0-0-0--4-4-4-4---|
G|---------------------------------------------------------------------------|  
D|---------------------------------------------------------------------------|(x2)
A|---------------------------------------------------------------------------|
E|---------------------------------------------------------------------------|
I also got the basic form of some of the verse, it could be           
played by a bass or palm-muted guitar either would work.                                       
e|---------------------------------------------------------------------------|
B|---------------------------------------------------------------------------|
G|---------------------------------------------------------------------------|
D|---------------------------------------------------------------------------|
A|----------------7--6~------------------------------------------------------|
E|-3--5-5-5--3-5---------3--5-5-5--3-5\--------------------------------------|

I'm pretty sure about the intro but I'm not 100% sure about the verse.

| /  slide up
| \  slide down
| h  hammer-on
| p  pull-off
| ~  hold note
| +  harmonic
| x  Mute note
===============================================================================
Tap to rate this tab
 
# A B C D E F G H I J K L M N O P Q R S T U V W X Y Z