Song name
# A B C D E F G H I J K L M N O P Q R S T U V W X Y Z

Sterling Knight - Starstruck tab

Song: Starstruck
Artist: Sterling Knight
Tab by: Danyael
Email: comments or corrections to, holesinhappyness@yahoo.com

this is a huge change in scene for me considering the last song I posted a tab for
was Blue Monday by Orgy but this is a catchy tune!


First I know there is another guitar, not sure what it plays but this works

Verse
   repeated throughout verses
e|-------------------------|
b|--1-1--x-3--x-x-3-3--x-3-|
g|--2-2--x-4--x-x-5-5--x-4-|
D|--2-2--x-4--x-x-5-5--x-4-|
A|-------------------------|
E|-------------------------|

Chorus
   all choruses, cept last that doesn't end after first run through

F5

  Starstruck  Camera Flashes   Cover of Magazines Whoa uh oh
  Starstruck  Designer sungla..Livin the dream as a teen
                                                    all the fancy
  cars        hollywood blvd   hear the crowd callin your name

e-----------------------------------------------------------|
b-----------------------------------------------------------|
g-------------5----------------4----------------------------|
D-3-----------5----------------5------------------x-7-x-5---|
A-3-----------3----------------5------------------x-7-x-5---|
E-1-----------3----------------3------------------x-5-x-3---|


  Starstruck         Starstruck
     prepare ta get                 oh yea
e-------------------------------------------|
b-------------------------------------------|
g-------------------------------------------|
D-3-----------------5--------------7--------|
A-3-----------------5--------------7--------|
E-1-----------------3--------------5--------|

Bridge
2x the middle string is muted i'm just lazy right now
e-------------------------------------|
b-------------------------------------|
g-22222222-44444444-55555555-77777777-|
D-------------------------------------|
A-00000000-22222222-33333333-55555555-|
E-------------------------------------|
Tap to rate this tab
# A B C D E F G H I J K L M N O P Q R S T U V W X Y Z