Song name
# A B C D E F G H I J K L M N O P Q R S T U V W X Y Z

Steve And The Alcoholics - A Knights Tale tab

Steve And The Alcoholics - A Knights Tale

Intro (Clean)
||-4~-444444444444-666666-333333-44444444444444-|
||-4~-444444444444-666666-333333-44444444444444-|
||-4~-555555555555-777777-444444-44444444444444-|
||-5~-666666666666-888888-555555-55555555555555-|
||-6~-666666666666-888888-555555-66666666666666-|
||-6~-444444444444-666666-333333-66666666666666-|
||-4~----------------------------44444444444444-|

Pre Chorus (Distortion)
||---------|
||---------|
||---------|
||---------|
||-6---5---|
||-6---5---|
||-4---3---|

Chorus
||----------------------------------|
||----------------------------------|
||----------------------------------|
||----------6666666-8888888-5555555-|
||--6666666-6666666-8888888-5555555-|
||--6666666-4444444-6666666-3333333-|
||--4444444-------------------------|

||----------------------------------|
||----------------------------------|
||----------------------------------|
||----------6666666-888888888888888-|
||--6666666-6666666-888888888888888-|
||--6666666-4444444-666666666666666-|
||--4444444-------------------------|

||---------|
||---------|
||---------|
||---------|
||---------|
||-6\------|
||---------|

Outro

||-------------------------------------------|
||-------------------------------------------|
||-------------------------------------------|
||----6------8-6-5-----6-----8------8------8-|
||-6--6--6---8-6-5--6--6--6--8-8888-8-8888-8-|
||-6--4--6---6-4-3--6--4--6--6-6666-6-6666-6-|
||-4-----4----------4-----4------------------|

||------------------------------|
||------------------------------|
||------------------------------|
||----6------8-6-5-----6--------|
||-6--6--6---8-6-5--6--6--6--6--|
||-6--4--6---6-4-3--6--6--6--6\-|
||-4-----4----------4--4--3--4\-|

http://www.myspace.com/steveandthealcoholics
Tap to rate this tab
 
# A B C D E F G H I J K L M N O P Q R S T U V W X Y Z