Guitaretab - guitar tabs
Song name
# A B C D E F G H I J K L M N O P Q R S T U V W X Y Z

Steve Angrisano - Sanctuary tab

Cavalera Conspiracy - Sanctuary
Credit: Billybusa
Tuning: Drop B

C#||----------------------------|---------|
G#||----------------------------|---------|
E ||----------------------------|---------|
B ||----------------------------|---------| Repeat a couple of times for the intro
F#||--0--/4---0--/4---0--/4---0-|----/1---|
B ||--0--/4---0--/4---0--/4---0-|----/1---|

----------------------------|------------------------------|
----------------------------|------------------------------|
----------------------------|------------------------------|
----------------------------|------------------------------|
-----4---4-----4---4-----4--|--4-----7---8-----4---4-----4-|
--0--4---4--0--4---4--0--4--|--4--0--7---8--0--4---4--0--4-|


--------------------------||
--------------------------||
--------------------------||
--------------------------|| x2
--4-----4---4-----4/------||
--4--0--4---4--0--4/------||

----------------------|
----------------------|
----------------------|
----------------------| x4
--5--4------/8--------|
--5--4------/8--------|

----------------------------|------------------------------|
----------------------------|------------------------------|
----------------------------|------------------------------|
----------------------------|------------------------------|
-----4---4-----4---4-----4--|--4-----7---8-----4---4-----4-|
--0--4---4--0--4---4--0--4--|--4--0--7---8--0--4---4--0--4-|


--------------------------||
--------------------------||
--------------------------||
--------------------------|| x4
--4-----4---4-----4/------||
--4--0--4---4--0--4/------||

----------------------|
----------------------|
----------------------|
----------------------| x4
--5--4------/8--------|
--5--4------/8--------|

Repeat this like 3 times:
-------------------------------------|
-------------------------------------|
-------------------------------------|
--10---10-------------------10---10--|
---8----8---0-0-0---0-0-0----8----8--|
------------0-0-0---0-0-0------------|

[ Tab from: http://www.guitaretab.com/s/steve-angrisano/133580.html ]
----------------------------------------------|
----------------------------------------------|
----------------------------------------------|
--------------------10---10-------------------|
--7h10p9-8h12p9------8----8---0-0-0---0-0-0---|
------------------------------0-0-0---0-0-0---|

-----------------------------------------|
-----------------------------------------|
-----------------------------------------|
--10---10--------------------10---10-----|
---8----8--7h10p9-8h11p7------8----8---0-|
---------------------------------------0-|

------------------------------------------------|
------------------------------------------------|
------------------------------------------------|
----------------10---10--------------------10---|
--0-0---0-0-0----8----8--7h10p9-8h12p9------8---|
--0-0---0-0-0-----------------------------------|

--------------------------------------------------------------------||
--------------------------------------------------------------------||
--------------------------------------------------------------------||
--10-----------------9-11-13-10-12-14-13-15-17-15-17-19-17-19-21-18-||
---8---0-0-0---0-0-0------------------------------------------------||
-------0-0-0---0-0-0------------------------------------------------||

Sorry I donít know the solo but this is the rythm guitar and the part after that:
-----------------------|-----------------------------------|
-----------------------|-----------------------------------|
--10-------------------|--------------------10-------------|
--10-------------------|--------------------10-------------|
---8-0--0--0-0-0-0-0-0-|--0--0--0-0-0-0-0-0--8-0--0--0-0-0-|
-----0--0--0-0-0-0-0-0-|--0--0--0-0-0-0-0-0----0--0--0-0-0-|

------------------------------|
------------------------------|
---------------10-10-10-11-10-|
------------------------------| Repeat for a while
--0-0-0--0--0---8--8--8--9--8-|
--0-0-0--0--0-----------------|

----------------------||
----------------------||
----------------------||
----------------------|| Repeat for a while
--0--0--0-0-0-0-0-0-0-||
--0--0--0-0-0-0-0-0-0-||

Repeat this the rest of the song:
----------------------------------|
----------------------------------|
----------------------------------|
--0-4-3-3-3-3-3---4-4-4-4-4-4-4-4-|
--0-4-3-3-3-3-3---4-4-4-4-4-4-4-4-|
--0-4-3-3-3-3-3---4-4-4-4-4-4-4-4-|

Again, Iím sorry for not tabbing the solo, I'm not good at tabbing solos ;P
Related for Sanctuary tab