Song name
# A B C D E F G H I J K L M N O P Q R S T U V W X Y Z

Steve Appleton - Dirty Funk tab

-------------------------------------------------------------------------------
Dirty Funk - steve appleton
-------------------------------------------------------------------------------
Tabbed by: Mark Bramham
Email:

throughout the song he does this on the acoustic...

Tuning: standard

e|---11--11--11--11--------11--11--11--11--11------------------------------|
B|---12--12--12--12--------11--11--11--11--11------------------------------|
G|---11--11--11--11--------11--11--11--11--11------------------------------|
D|---13--13--13--13--------11--11--11--11--11------------------------------|
A|---11--11--11--11--------11--11--11--11--11------------------------------|
E|-------------------------------------------------------------------------|

e|---9---9---9---9-------9--9--9--9--9-------------------------------------|
B|---10--10--10--10------9--9--9--9--9-------------------------------------|
G|---9---9---9---9-------9--9--9--9--9-------------------------------------|
D|---11--11--11--11------9--9--9--9--9-------------------------------------|
A|---9---9---9---9-------9--9--9--9--9-------------------------------------|
E|-------------------------------------------------------------------------|

Listen for the Rhythm, i play five of the 11's and 9's barred but it may be four, just 
and you'll find what fits it.
the other tabs seemed wrong to me so this is how i play it, hope its usefull, about time 
did my bit for UG anyway =)
Tap to rate this tab
 
# A B C D E F G H I J K L M N O P Q R S T U V W X Y Z