Song name
# A B C D E F G H I J K L M N O P Q R S T U V W X Y Z

Steve Burns - A Reason tab

This song is pretty lo-fi and simple, so it's easy to play on guitar, 
but it's the simplicity of the song that I love. 
There are really only two parts to learn.

/=slide

Let every note ring after you play it.

Intro/verse:
|-----------------------------|-------------------------------|
|---8--/--5-----5/7/5---3-----|---8--/--5-----0--1--3--0------|
|-----------------------------|-------------------------------|
|-----------------------------|-------------------------------|
|---7--/--3-----3/5/3---2-----|---7--/--3--------0--2---------|
|-----------------------------|---------------3--------3------|


Bridge:
|------------------------------------------------------------|
|---3-----0--------3-----0--------3-----0--------3-----0-----|
|------------------------------------------------------------|
|------------------------------------------------------------|
|---2--------------2--------------2--------------2-----------|
|---------3----0---------3----0---------3----0---------3-----|

|------------------------------------------------------------|
|---3-----0--------3-----0--------3-----0--------3-----0-----|
|------------------------------------------------------------|
|------------------------------------------------------------|
|------------------------------------------------------------|
|---2-----3----0---2-----3----0---2-----3----0---2-----3-----|




Last time on the outro:
|------------------------------|------------------------------|
|---8--/--5-----5/7/5----3-----|---8--/--5-----5/7/5----3-----|
|------------------------------|------------------------------|
|------------------------------|------------------------------|
|---7--/--3-----3/5/3----2-----|---7--/--3-----3/5/3----2-----|
|------------------------------|------------------------------|

|------------------------------|
|---8--/--5-----0--1--3--0-----|
|------------------------------|
|------------------------------|
|---7--/--3--------0--2--------|
|---------------3--------3-----|


I tried to make it as visually clear as possible,
but basically, he slides up and down to and from each note,
so there's always sound coming from the guitar.

That's all there is to it.
Any comments, questions, etc. send to bambrown@comcast.net
Tap to rate this tab
 
# A B C D E F G H I J K L M N O P Q R S T U V W X Y Z