Song name
# A B C D E F G H I J K L M N O P Q R S T U V W X Y Z

Steve Conte - Seven Rings In Hand tab

-------------------------------------------------------------------------------
Seven Rings in Hand (Sonic and the Secret of the Rings OST - Runblebee and Steve Conte
-------------------------------------------------------------------------------
Tabbed by: DarkGunn
Email: joshuakingdbz@hotmail.com
Tuning: Drop D (DADGBe)

I understand a few bands and artists made this song, however Steve Conte is the only one 
Ultimate Guitar's archieve. I apologze if I submitted this song in the wrong artist's name.

This is the main theme from Sonic and the Secret of the Rings by Sega on the Nintendo Wii.

NOTE: I used the "===" to keep the PM in place. When I previewed the tab they went out 
place. Do not be confused by them. Please if the Ultimate Guitar Editor can put them in 
where they are now and remove the "===" that would be great.

Intro (1 guitar)

e|---------------------------------------|
B|---------------------------------------|
G|---------------------------------------|
D|-----------------------------6--3------|
A|-----------------------------4--1------| X8
D|---2--2--2--2--2--2--2--2--------------|
=====PM PM PM PM PM PM PM PM
-----------------------------------------------------------------------------|
-----------------------------------------------------------------------------|
-----------------------------------------------------------------------------|
-----------------------------6-6--3---------------------------6-6--3---------| X2
-----------------------------4-4--1---------------------------4-4--1---------|
-----2--2--2--2--2--2--2--2-----------2--2--2--2--2--2--2--2-----------------|
=====PM PM PM PM PM PM PM PM==========PM PM PM PM PM PM PM PM

Verse (1 guitar)

e|---------------------------------------------------------------------------|
B|---------------------------------------------------------------------------|
G|---------------------------------------------------------------------------|
D|---------------------------6-6--3---------------------------6-6--3---------|
A|---------------------------4-4--1---------------------------4-4--1---------| X4
D|---2--2--2--2--2--2--2--2-----------2--2--2--2--2--2--2--2-----------------|
=====PM PM PM PM PM PM PM PM==========PM PM PM PM PM PM PM PM

---------------------------------------------------------------------------|
---------------------------------------------------------------------------|
---------------------------------------------------------------------------|
-----3-3-3-3-3-3-3-3-3-3-3-3-3-3-3-3-6-6-6-6-6-6-6-6-6-6-6-6-6-6-6-6-------|
-----1-1-1-1-1-1-1-1-1-1-1-1-1-1-1-1-4-4-4-4-4-4-4-4-4-4-4-4-4-4-4-4-------|
---------------------------------------------------------------------------|


e|---------------------------------------------------------------------------|
B|---------------------------------------------------------------------------|
G|---------------------------------------------------------------------------|
D|---------------------------6-6--3---------------------------6-6--3---------|
A|---------------------------4-4--1---------------------------4-4--1---------|
D|---2--2--2--2--2--2--2--2-----------2--2--2--2--2--2--2--2-----------------|
=====PM PM PM PM PM PM PM PM =========PM PM PM PM PM PM PM PM

---------------------------------------------------------------------------|
---------------------------------------------------------------------------|
---------------------------------------------------------------------------|
-----3-3-3-3-3-3-3-3-3-3-3-3-3-3-3-3-6-6-6-6-6-6-6-6-6-6-6-6-6-6-6-6-------|
-----1-1-1-1-1-1-1-1-1-1-1-1-1-1-1-1-4-4-4-4-4-4-4-4-4-4-4-4-4-4-4-4-------|
---------------------------------------------------------------------------|


Pre-Chorus (1 guitar)

e|---------------------------------------------------------------------------|
B|---------------------------------------------------------------------------|
G|---------------------------------------------------------------------------|
D|---------------------------6-6--3---------------------------6-6--3---------|
A|---------------------------4-4--1---------------------------4-4--1---------|
D|---2--2--2--2--2--2--2--2-----------2--2--2--2--2--2--2--2-----------------|
=====PM PM PM PM PM PM PM PM==========PM PM PM PM PM PM PM PM


-----------------------------------------------------------------------------|
-----------------------------------------------------------------------------|
-----------------------------------------------------------------------------|
-----6-6-6-6-6-6-6-6-6-6-6-6-6-6-6-6-8-8-8-8-8-8-8-8-8-8-8-8-8-8-8-8---------|
-----4-4-4-4-4-4-4-4-4-4-4-4-4-4-4-4-6-6-6-6-6-6-6-6-6-6-6-6-6-6-6-6---------|
-----------------------------------------------------------------------------|

-----------------------------------------------------------------------------|
-----------------------------------------------------------------------------|
-----------------------------------------------------------------------------|
-----5-5-5-5-5-5-5-5-5-5-5-5-5-5-5-5-6-6-6-6-6-6-6-6-6-6-6-6-6-6-6-6---------|
-----3-3-3-3-3-3-3-3-3-3-3-3-3-3-3-3-4-4-4-4-4-4-4-4-4-4-4-4-4-4-4-4---------|
-----------------------------------------------------------------------------|


-----------------------------------------------------------------------------|
-----------------------------------------------------------------------------|
-----------------------------------------------------------------------------|
-----6-6-6-6-6-6-6-6-6-6-6-6-6-6-6-6-8-8-8-8-8-8-8-8-8-8-8-8-8-8-8-8---------|
-----4-4-4-4-4-4-4-4-4-4-4-4-4-4-4-4-6-6-6-6-6-6-6-6-6-6-6-6-6-6-6-6---------|
-----------------------------------------------------------------------------|


-----------------------------------------------------------------------------|
-----------------------------------------------------------------------------|
-----------------------------------------------------------------------------|
-----5-5-5-5-5-5-5-5-5-5-5-5-5-5-5-5-6-6-6-6-6-6-6-6-6-6-6-6-6-6-6-6---------|
-----3-3-3-3-3-3-3-3-3-3-3-3-3-3-3-3-4-4-4-4-4-4-4-4-4-4-4-4-4-4-4-4---------|
-----------------------------------------------------------------------------|

Chorus  (2 guitars)

Rhythm

e|-----------------------------------------------------------------------------|
B|-----------------------------------------------------------------------------|
G|-----------------------------------------------------------------------------|
D|---------------------------6--3-----------------------------6--3-------------|
A|---------------------------4--1-----------------------------4--1-------------| X2
D|---2--2--2--2--2--2--2--2-----------2--2--2--2--2--2--2--2-------------------|
=====PM PM PM PM PM PM PM PM==========PM PM PM PM PM PM PM PM
Lead

e|---------------------------------------------------------------------------|
B|---------------------------------------------------------------------------|
G|---------------------------------------------------------------------------|
D|---3-------------------------------3---------------------------------------|
A|---3-------------------------------3---------------------------------------| X2
D|---3-------------------------------3---------------------------------------|

Repeat the Verse and Pre-chorus, however, instead of playing the Chorus twice, play it 
times.


Note: For the Lead in solo, it helps to have high gain with good delay on. A Floyd Rose Tremelo
will also keep the notes sustained.


Solo (2 guitars)

Lead

e|---------------------------------------------------------------------------|
B|-------------------------------------16b16b------------16-16----16-16------|
G|---------------------------------------------------------------------------|
D|---------------------------------------------------------------------------|
A|---------------------------------------------------------------------------|
D|---------------------------------------------------------------------------|

-----------------------------------------------------------------------------|
-----------------------------------------------------------------------------|
-----------------------------------------------------------------------------|
----------------------------------------19\5--13--13-12-10---5v--------------|
-----------------------------------------------------------------------------|
-----------------------------------------------------------------------------|

----------------------------------------------------------------------------|
---------------------------------------16b-16bv-------16bv-18bv-20bv\-------|
----------------------------------------------------------------------------|
----------------------------------------------------------------------------|
----------------------------------------------------------------------------|
----------------------------------------------------------------------------|

Rhythm

e|-----------------------------------------------------------------------------|
B|-----------------------------------------------------------------------------|
G|-----------------------------------------------------------------------------|
D|---------------------------6--3-----------------------------6--3-------------|
A|---------------------------4--1-----------------------------4--1-------------| X4
D|---2--2--2--2--2--2--2--2-----------2--2--2--2--2--2--2--2-------------------|
=====PM PM PM PM PM PM PM PM==========PM PM PM PM PM PM PM PM


The Verse this time will be slightly different.


Verse (2 guitars)

Rhythm


e|-----------------------------------------------------------------------------|
B|-----------------------------------------------------------------------------|
G|-----------------------------------------------------------------------------|
D|-----6-6-6-6-6-6-6-6-6-6-6-6-6-6-6-6-8-8-8-8-8-8-8-8-8-8-8-8-8-8-8-8---------|
A|-----4-4-4-4-4-4-4-4-4-4-4-4-4-4-4-4-6-6-6-6-6-6-6-6-6-6-6-6-6-6-6-6---------|
D|-----------------------------------------------------------------------------|

-------------------------------------------------------------------------------|
-------------------------------------------------------------------------------|
-------------------------------------------------------------------------------|
-------5-5-5-5-5-5-5-5-5-5-5-5-5-5-5-5-6-6-6-6-6-6-6-6-6-6-6-6-6-6-6-6---------| X4
-------3-3-3-3-3-3-3-3-3-3-3-3-3-3-3-3-4-4-4-4-4-4-4-4-4-4-4-4-4-4-4-4---------|
-------------------------------------------------------------------------------|

On the fourth time of playing the verse, the second solo kicks in.

Lead

e|-----------------------------------------------------------------------------------------------|
B|-----16b16b\-------16------------------16------------------------------------------------------|
G|-------------------------13v-----12--------12---13---15----15/18-17--20-20-18-17-15-14-17-15-14|
D|-----------------------------------------------------------------------------------------------|
A|-----------------------------------------------------------------------------------------------|
D|-----------------------------------------------------------------------------------------------|

The Chorus is different this time too

Chorus (2 guitars)

Lead

e|---------------------------------------------------------------------------|
B|---------------------------------------------------------------------------|
G|------17v-------15--20---17v-----------------------------------------------|
D|---------------------------------19t19t19t19t19t\-----15--20--17v----------|
A|---------------------------------------------------------------------------|
D|---------------------------------------------------------------------------|

Rhythm


e|---------------------------------------------------------------------------|
B|---------------------------------------------------------------------------|
G|---------------------------------------------------------------------------|
D|---------------------------6--3-----------------------------6--3-----------|
A|---------------------------4--1-----------------------------4--1-----------| X2
D|---2--2--2--2--2--2--2--2-----------2--2--2--2--2--2--2--2-----------------|
=====PM PM PM PM PM PM PM PM==========PM PM PM PM PM PM PM PM


Outro (1 guitar)


e|---------------------------------------------------------------------------|
B|---------------------------------------------------------------------------|
G|---------------------------------------------------------------------------|
D|---------------------------6--3-----------------------------6--3-----------|
A|---------------------------4--1-----------------------------4--1-----------| X2
D|---2--2--2--2--2--2--2--2-----------2--2--2--2--2--2--2--2-----------------|
=====PM PM PM PM PM PM PM PM==========PM PM PM PM PM PM PM PM

| /  slide up
| \  slide down
| b  bend
| PM palm mute
| v  vibrato
| t  tap
|
===============================================================================

If you have any questions, don't hesitate to ask. E-mail me, or check out my cover of 
song on Youtube.
Tap to rate this tab
# A B C D E F G H I J K L M N O P Q R S T U V W X Y Z