Guitaretab - guitar tabs
Song name
# A B C D E F G H I J K L M N O P Q R S T U V W X Y Z

Steve Earl - Youre Still Standing There tab

this is my first tab ever, so it's not very good. but i've tried. i've just written how 
take the chords cause it's a pretty easy song to play. enjoy! /matilda

vers.
e|--3-----3-----0-----2-----3-----2-----3----------------------------------------|
B|--3-----3-----0-----3-----3-----3-----3----------------------------------------|
G|--0-----0-----0-----2-----0-----2-----0----------------------------------------|
D|--0-----0-----2-----0-----2-----0-----0----------------------------------------|
A|--2-----0-----2-----------3-----------2----------------------------------------|
E|--3-----2-----------------------------3----------------------------------------|
[ Tab from: http://www.guitaretab.com/s/steve-earl/107226.html ]
ref.
e|--3-----2-----3----------------------------------------------------------------|
B|--3-----3-----3----------------------------------------------------------------|
G|--0-----2-----0----------------------------------------------------------------|
D|--2-----0-----0----------------------------------------------------------------|
A|--3-----------2----------------------------------------------------------------|
E|--------------3----------------------------------------------------------------|
x 4 (I think)


vers.
I've spent my life following things I cannot see
And just when I catch up to them, they slip away from me
I've been down a thousand trails I've never walked before
And I found out that without fail, they lead me to your door

ref.
And the world keep turning round and round
It leaves me hanging in the air
My heart keeps turning upside down
And you're still standin' there

(here it's the same chords as the vers)

vers.
Lately I see all the signs, I feel it in the wind
The same thing happens every time that you come back again
I admit that there are nights when I sit up and cry
But sometimes I turn out the lights and pray you'll pass me by

ref.
And the world keep turning round and round
It leaves me hanging in the air
My heart keeps turning upside down
And you're still standin' there

(here it's the same chords as the vers)

Since you're gone my empty arms have nothing left to hold
And your memory cannot keep me warm but it never leaves me cold

ref.
Related for Youre Still Standing There tab