Song name
# A B C D E F G H I J K L M N O P Q R S T U V W X Y Z

Steve Earle - Back To The Wall tab

Artist: Steve Earle
Song: Back to the Wall
Tabbed By: Ckyfan

Intro


e:-----------------------------------------------|
b:-5----3----3-2-2-----------5----3-----3-2-2----|
g:-2----2----2-2-2------2----2----2-----2-2-2----|
d:-2----2----2-2-2------2----2----2-----2-2-2----|
a:-0----0----0-0-0------0----0----0-----0-0-0-0--|
E:-------------------3~--------------------------|

After this the rythem guitar and the bass cuts in both playing the A note together and 
the same during the verse.

e:----------------------------------------------------|
b:-5----3----3-2-2------------------5----3-----3-2-2--|
g:-2----2----2-2-2------------------2----2-----2-2-2--|
d:-2----2----2-2-2------------------2----2-----2-2-2--|
a:-0----0----0-0-0-----0-3-0---0----0----0-----0-0-0--|
E:-------------------3-------3------------------------|


Verse:


while the bass and rythem is playing the A note, the lead guitar plays this

e:----------------------------------------------------|
b:-5----3----3-2-2------------------5----3-----3-2-2--|
g:-2----2----2-2-2------------------2----2-----2-2-2--|
d:-2----2----2-2-2------------------2----2-----2-2-2--|      X4
a:-0----0----0-0-0-----0-3-0---0----0----0-----0-0-0--|
E:-------------------3-------3------------------------|


Chorus:

Both guitars and bass plays this in the chorus

e:---------------------------------------------------|
b:---------------------------------------------------|
g:---------------2---2-2---2----7-5---2---2-2---2----|   X3
d:---------------2---2-2---2----7-5---2---2-2---2----|
a:------0-3-0----0---0-0---0----5-3---0---0-0---0----|
E:--0-3-------3--------------------------------------|

e:--------------------------------------------------|
b:--------------------------------------------------|
g:-----------------------2--------------------------|
d:---------------2-------2--------------------------|
a:------0-3-0----2-------0--------------------------|
E:--0-3-------3--0----------------------------------|


Solo:

Sorry, but I dont know the solo, but the rythem plays the chorus again


That is basically it. i think that the tab is pretty good. Good Luck
Tap to rate this tab
 
# A B C D E F G H I J K L M N O P Q R S T U V W X Y Z