Song name
# A B C D E F G H I J K L M N O P Q R S T U V W X Y Z

Steve Earle - Sparkle And Shine tab

Intro:
e|--7---5---3------3-------------3-----------------------|
B|-------------3h5---5--3----3h5---5--3-------3----------|
G|---------------------------------------4h5-----5--4----|
D|-------------------------------------------------------|
A|-------------------------------------------------------|
E|-------------------------------------------------------|


e|--7---5---3------3-------------3----3---2---3----------|
B|-------------3h5---5--3----3h5---5---------------------|
G|-------------------------------------------------------|
D|-------------------------------------------------------|
A|-------------------------------------------------------|
E|-------------------------------------------------------|





Verse:


G       C           G
My baby sparkle and shine
C           G
Sparkle and shine
D           G
Sparkle and shine
G       C           G
My baby sparkle and shine
    G        C           G
And everyone knows she’s fine
G           C            G
She blesses all that she sees
C             G          C           G
A toss of her hair and a kiss in the breeze
G                  C          G
But she don’t love no one but me
G           C             G
And I can’t believe she’s mine


Em             C
Shimmering she moves
Em            C     G
Sunlight all around her
Em              C
Even when she’s blue
Em               C     G
Silver clouds surround her


My baby sparkle and shine
Sparkle and shine
Sparkle and shine
My baby sparkle and shine
And I can’t believe she’s mine

My baby swings down the street
Big tall high heel shoes on her feet
Walks by and my heart skips a beat 
And I’m stumblin’ like a fool
She give me somethin’ so sweet
I can’t sleep y’all and I can’t eat
Sparks fly whenever we meet
I’m breathless ‘cause she’s so cool

Anywhere she goes
I can only follow
She’ll be there I know
When I awake tomorrow

My baby sparkle and shine 
Sparkle and shine 
Sparkle and shine
My baby sparkle and shine
And everyone knows she’s fine

My baby sparkle and shine 
Sparkle and shine 
Sparkle and shine
My baby sparkle and shine
And everyone knows she’s fine

And everyone knows she’s mine

 
Tap to rate this tab
# A B C D E F G H I J K L M N O P Q R S T U V W X Y Z