Song name
# A B C D E F G H I J K L M N O P Q R S T U V W X Y Z

Steve Earle - Lonely Are The Free tab

Steve Earle - Lonely Are The Free
Tabbed by Redmildew (redmildew@mail.ru)     

Chords:
C#5
A#5
F#



intro
E||-------------------------------------------------|
B||---------------------------6--7--4---------------|
G||------------------------------------6------------|
D||------6-----6-----6-----6------------------------|
A||---4-----4-----4-----4-----4--4--4-----8-----8---|
E||------------------------------------6-----6------|

                                     verse (can combine with intro)
---------------------------------||-----------------||----------------||---------------||
---------------------------------||-----------------||----------------||---------------||
---------------10--11--8--6------||-----------------||----------------||------3-----3--||
-----------------------------6---||------6-----6----||----------------||---4-----4-----||
------8-----8-------------4------||---4-----4-------||------8-----8---||---------------||
---6-----6-----6---6--6----------||-----------------||---6-----6------||---------------||

  
Lick in the beginning of last part of the song
-------(13)------(13)-------(13)------(13)----||
--------18--------18---------18--------18-----||
---15--------15--------15---------15----------||
----------------------------------------------||
----------------------------------------------||
----------------------------------------------||
Tap to rate this tab
# A B C D E F G H I J K L M N O P Q R S T U V W X Y Z