Song name
# A B C D E F G H I J K L M N O P Q R S T U V W X Y Z

Steve Earle - My Old Friend The Blues tab

------------------------------------------------------------------------
             MY OLD FRIEND THE BLUES INTRO - Steve Earle
------------------------------------------------------------------------
Tabbed by:  wrnking

Based on one of the many youtube videos of him performing solo, live. 

Standard tuning

                          G               C               G
e|-------7--------5-----------3-------3-----------------------3---------|
B|----------------------------0-------0-----------1--p0-------0---------|
G|---5\7-----7/5--------------0-------0-------0---------------0---------|
D|--------------------0-----------0------0h2----------------------0-----|
A|----------------------------------------------------------------------|
E|------------------------3-------------------------------3-------------|
     1   +   2    +   3   +   4   +   1   +   2   +   3   +   4   +   

                          G               C               G
e|-------7--------5---------------3-------------------------------3-----|
B|--------------------------------0-------------------1-----------0-----|
G|---7-------7/5------------------0---------------0---------------0-----|
D|--------------------0-----------0----------0h2----------0-------0-----|
A|----------------------------------------3---------------2-------2-----|
E|------------------------3-------------------------------3-------3-----|
     1   +   2    +   3   +   4   +   1   +   2   +   3   +   4   +   

                               D7
e|-------7--------7---0-1-2---------------------------------------3-----|
B|------------------------------------1-------------------0--p1---1-----|
G|---5\7-----7--------------------2-------------------2-----------2-----|
D|----------------------------0-------------------0---------------0-----|
A|--------------------------------------------0-------------------0-----|
E|----------------------------------------------------------------------|
     1   +   2    +   3   +   4   +   1   +   2   +   3   +   4   +   

                          G                   C
e|-------7--------5---------------------------------------0-------------|
B|------------------------------------------------1-------1--p0---------|
G|---5\7-----7/5--------------0-------0-------------------0-------------|
D|--------------------0-----------0----------0h2------2---3-------0-----|
A|----------------------------------------------------------------------|
E|------------------------3---------------3-----------------------------|
     1   +   2    +   3   +   4   +   1   +   2   +   3   +   4   +   




************************************

| /   slide up
| \   slide down
| h   hammer-on
| p   pull-off
| ~   vibrato
| +   harmonic
| x   Mute note
| b   Bend
| pb  Pre-bend
| br  Bend release
| pbr Pre-bend release
| brb Bend release bend

************************************
Tap to rate this tab
# A B C D E F G H I J K L M N O P Q R S T U V W X Y Z