Song name
# A B C D E F G H I J K L M N O P Q R S T U V W X Y Z

Steve Fee - Broadcast tab

----------------------------------------------------------------------------
			     SONG NAME - Band Name
----------------------------------------------------------------------------
Tabbed by: Kyle
Email: k.muscara@yahoo.com

Tuning: Drop D

Intro
Play twice
the verse is basically the same except you dont play the first part.
e|------------------------------------------------------------------|
B|------------------------------------------------------------------|  
G|-9-9-9-9-9-9-9-7-7-9-7--------------------------------------------| 
D|-----------------------10-7---7--7--7-4-7-10--10--10-9--9-9-------|
A|------------------------------7--7--7-4-7-10--10--10-9--9-9-------|
D|------------------------------7--7--7-4-7-10--10--10-9--9-9-------|

"Shake this ground..."    "Our God reigns..."
e|-------------------------------------------------------------------------|
B|-------------------------------------------------------------------------|
G|--7~---------------------9~----------------------------------------------|
D|--7~---------------------9~----------------------------------------------|
A|--5~---------------------7~----------------------------------------------|
D|-------------------------------------------------------------------------|

Chorus
e|-------------------------------------------------------------------------|
B|-------------------------------------------------------------------------|
G|-----------------------------7-------------------------------------------|
D|--7--------9--------4--------7--(x8)-----------(PLAY TWICE)--------------|
A|--7--(x8)--9--(x8)--4--(x8)--5-------------------------------------------|
D|--7--------9--------4----------------------------------------------------|

The bridge was a little tricky, not sure if it's 100% but here's what i got.
One guitar plays the intro riff while another plays this.  Come in after the bass.
e|-------------------------------------------------------------------------|
B|-------------------------------------------------------------------------|
G|-------------------------------------------------------------------------|
D|--7--------6--------5--------3--------2----------------------------------|
A|--7--(x8)--6--(x8)--5--(x8)--3--(x4)--2--(x4)----------------------------|
D|--7--------6--------5--------3--------2----------------------------------|

At the end of the bridge end on the F (on the third fret) then slide up an octave.
 you'll hear it in the song. that's pretty much it.
  listen to the song and you should get it.

Intro
Verse
Chorus
Verse
Chorus x2
Bridge
Chorus
Outro (play chords from bridge)


| /  slide up
| \  slide down
| h  hammer-on
| p  pull-off
| ~  vibrato
| +  harmonic
| x  Mute note
===============================================================================
Tap to rate this tab
# A B C D E F G H I J K L M N O P Q R S T U V W X Y Z