Song name
# A B C D E F G H I J K L M N O P Q R S T U V W X Y Z

Steve Fee - Everything Falls chords

Highlighted       Show chord diagrams
Everything Falls
Fee - Hope Rising

Based off the acoustic version by Fee, found online, which was done in B. The album Hope 
does the song in C.

(Intro) Riff
(No capo, Version 1)
E------------|--------------|
A------------|--------------|
D------------|--------------|
G--5-7-9-9---|--5-10-9-7-5--|
B------------|--------------|
e------------|--------------|
     x3            x1

(No capo, Version 2: Same notes, different places on the neck)
E------------|--------------|
A------------|--------------|
D------------|--------------|
G--5-7-------|--5-----7-5---|
B------5-5---|----6-5-------|
e------------|--------------|
     x3            x1

(Capo 5, Version 3: Same notes, when capo 5 is used; ie, 0 = capo on 5th fret, played open)
E------------|--------------|
A------------|--------------|
D------------|--------------|
G--0-2-------|--0-----2-0---|
B------0-0---|----1-0-------|
e------------|--------------|
     x3            x1

Chords: Capo 5
[verse 1]
C   G
you said
      Em                 D
you'd never leave or forsake me
     C   G
when you said,
     Em            D
this life is gonna shake me
C   G
you said
     Em                   D             C
this world is gonna bring trouble on my soul
       D
this i know

[chorus]
     D                Em
when everything falls apart
     C            G
your arms hold me together
     D                Em
when everything falls apart
                C             G
you're the only hope for this heart
     D                Em
when everything falls apart
       C
and my strength is gone
G          D          C
i find you mighty and strong
                 D
you keep holding on
                 C
you keep holding on

[verse 2]
C      G
when i see
    Em            D
the darkness all around me
C      G
when i see
     Em          D
that tragedy has found me
C       G
i still believe
     Em                 D            C
your faithful arms will never let me go
            D
and still i know

[chorus]

[bridge]
C          D            Em
sorrow may last for the night
            C
but hope is rising with the sun
    D
its rising with the sun
C             D              Em
there will be storms in this life
           C
but i know you will overcome
D
you will overcome

[chorus until end]
Tap to rate this tab
# A B C D E F G H I J K L M N O P Q R S T U V W X Y Z