Song name
# A B C D E F G H I J K L M N O P Q R S T U V W X Y Z

Steve Fee - Beautiful The Blood tab

Beautiful the blood- Steve Fee,

(tabbed by Colby Clites)

this is the lead line's for this song. in key-C#.

(intro)
e-----------------------------------------------------|
B-----------------------------------------------------|
G-8-10-6-8-----6-8-10-8h10----8-10-6-8-----6-8-10s6---|
D---------6-6h8-----------------------6-6h8-----------|
A-----------------------------------------------------|
E-----------------------------------------------------|

(pre-C) now i sing freedom for...

e-----16------16------13---|
B---14--14--14--14--13--14-| (x3)
G-13------15------13-------|
D--------------------------|
A--------------------------|
E--------------------------|

those are the main lead lines.
Tap to rate this tab
# A B C D E F G H I J K L M N O P Q R S T U V W X Y Z