Song name
# A B C D E F G H I J K L M N O P Q R S T U V W X Y Z

Steve Fee - Glory To God tab

intro
e|--------------------------------------------------------------------------|
B|-----------------------------------11--11--11--12--12--12-----------------|
G|--11--11--11--------------------------------------------------------------|
D|---------------13--13--13--13---------------------------------------------|
A|--------------------------------------------------------------------------|
E|--------------------------------------------------------------------------|

e|--------------------------------------------------------------------------|
B|-------------------------12----11--11--12--12p11h12-----------------------|
G|--11--11--11--------------------------------------------------------------|
D|-------------13--13--13---------------------------------------------------|
A|----------------------------------- might be a slight echo at the end idk-|
E|--------------------------------------------------------------------------|

Glory to god, glory to god glory to god forever part, first time
e|-11------11------11------11------9-------9------11------11----------------|
B|-----12------12------12------12------12------12------12------12-----------|
G|--------------------------------------------------------------------------|
D|--------------------------------------------------------------------------|
A|--------------------------------------------------------------------------|
E|--------------------------------------------------------------------------|

Play this after -take my life and let it be yours-
e|--------------------------------------------------------------------------|
B|--------------------------------------------------------------------------|
G|---11--11--11-------------------------------------------------------------|
D|---------------11--11--11-------------------------------------------------|
A|--------------------------------------------------------------------------|
E|--------------------------------------------------------------------------|

Thatís about the only real lead parts in the song. Play the chords and add distortion 
needed. There should be some chords on the web, its where I got mine. but you may have to 
them. I use a capo, but I tabbed this in standard no capo.
Tap to rate this tab
# A B C D E F G H I J K L M N O P Q R S T U V W X Y Z