Steve Fee - Rise And Sing tab

Key of B Majour.


     E  E  E  E  E  Q    E     E  E  E  E  E  Q    E   
E||-------------------------|-------------------------|
B||-------------------------|-------------------------|
G||--------4-----4--2----4--|--------4-----4--2----4--|
D||-------------------------|--2--2-----2-------------|
A||--2--2-----2-------------|-------------------------|
E||-------------------------|-------------------------|

   E  E  E  E  E  Q    E     E  E  E  E  E  E  E  E     
|-------------------------|---------------------------||
|-------------------------|--------------------2------||
|--------4-----4--2----4--|--------4-----2--4-----4--*||
|--1--1-----1-------------|--2--2-----2--------------*||
|-------------------------|---------------------------||
|-------------------------|---------------------------||



Duration Legend
---------------
Q - quarter
E - 8th
Tap to rate this tab
 
# A B C D E F G H I J K L M N O P Q R S T U V W X Y Z