Song name
# A B C D E F G H I J K L M N O P Q R S T U V W X Y Z

Steve Fee - God Is Alive tab

Artist: Steve Fee
Song: Glory To God
Tabbed by Dukeofchaos

Please go to the end for order of play.

RIFF 1:
e------------------------------------|
B------------------------------------|
G--4-4-4---9-9-9-9--4-4-4---9-9-9-9--|
D--4-4-4---9-9-9-9--4-4-4---9-9-9-9--|
A--2-2-2---7-7-7-7--2-2-2---7-7-7-7--|
E------------------------------------|


RIFF 2:
e--------------------------------|
B--------------------------------|
G--4-4-4---9-9-9-9--4-4-4-4-4-4--|
D--4-4-4---9-9-9-9--4-4-4-4-4-4--|
A--2-2-2---7-7-7-7--2-2-2-2-2-2--|
E--------------------------------|

INTRO:
e-----------------------|--2-2-2-2------------|
B-----------------------|--2-2-3-2------------|
G--4-4-4---9-9-9-9------|--2-2-2-2---6-6------|
D--4-4-4---9-9-9-9------|--2-2-2-2---6-6------|
A--2-2-2---7-7-7-7--(3X)|------------4-4------|
E-----------------------|---------------------|

INTRO2
e-----------------------|--2-2-2-2------------|
B-----------------------|--2-2-3-2------------|
G--4-4-4---9-9-9-9------|--2-2-2-2---6-6-6-6--|
D--4-4-4---9-9-9-9------|--2-2-2-2---6-6-6-6--|
A--2-2-2---7-7-7-7--(3X)|------------4-4-4-4--|
E-----------------------|---------------------|


VERSE:
tHE VERSE IS JUST CHORDS, SO....:


B	(hold)
Let the darkness flee
C#m	(hold)
Its got no power over me
A	(hold)
I have been set free
God is alive! (RIFF 1)

B	(hold)
Death where is your sting
C#m	(hold)
Sin has got no hold on me
A	(hold)
I am free indeed
God is Alive  (RIFF2)

Pre Chorus:
C	(hold)
Weve been redeemed
F	(hold)
So rise and sing

Chorus:

e--*-*-*-*---*-*-*-*---*-*-*-*---*-*-*-*---|
B--*-*-*-*---*-*-*-*---*-*-*-*---*-*-*-*---|
G--4-4-4-4---4-4-4-4---4-4-4-4---9-9-7-7---|
D--*-*-*-*---*-*-*-*---*-*-*-*---*-*-*-*---|
A--2-2-2-2---2-2-2-2---2-2-2-2---7-7-5-5---|
E--*-*-*-*---*-*-*-*---*-*-*-*---*-*-*-*---|


e--*-*-*-*---*-*-*-*---*-*-*-*---*-*-*-*---|
B--*-*-*-*---*-*-*-*---*-*-*-*---*-*-*-*---|
G--6-6-6-6---6-6-6-6---6-6-6-6---9-9-7-7---|
D--*-*-*-*---*-*-*-*---*-*-*-*---*-*-*-*---|
A--4-4-4-4---4-4-4-4---4-4-4-4---7-7-5-5---|
E--*-*-*-*---*-*-*-*---*-*-*-*---*-*-*-*---|


e--*-*-*-*---*-*-*-*---*-*-*-*---*-*-*-*---|
B--*-*-*-*---*-*-*-*---*-*-*-*---*-*-*-*---|
G--2-2-2-2---2-2-2-2---2-2-2-2---9-9-7-7---|
D--*-*-*-*---*-*-*-*---*-*-*-*---*-*-*-*---|
A--0-0-0-0---0-0-0-0---0-0-0-0---7-7-5-5---|
E--*-*-*-*---*-*-*-*---*-*-*-*---*-*-*-*---|


e--*--*--*--*----*--*--*--*---*--*--*--*---*--*--*--*---|
B--*--*--*--*----*--*--*--*---*--*--*--*---*--*--*--*---|
G--13-13-13-13---15-15-15-15--16-16-16-16--18-18-18-18--|
D--*--*--*--*----*--*--*--*---*--*--*--*---*--*--*--*---|
A--11-11-11-11---13-13-13-13--14-14-14-14--16-16-16-16--|
E--*--*--*--*----*--*--*--*---*--*--*--*---*--*--*--*---|
(2X)


Verse 2:

B	(hold)
Let us wake and rise
C#m	(hold)
Lift your voices lift your eyes
A	(hold)
Were gonna shout were gonna shake the skies
God is alive (RIFF2)

Bridge:

e-----------------17-------------|--------------------------------|
B-----14----16----------14----12-|--------------------------------|
G--------------------------------|--------------------------------|
D--14----14----14----14----14----|-----14----14----15----15-------|
A--------------------------------|--13----13----13----13----------|
E--------------------------------|--------------------------------|

e--------------------------------|
B--------------------------------|
G------13----13-----16----16-----|
D--/12----12----/15----15--------|
S--------------------------------|
E--------------------------------|
(2x)


Ok, so here it goes. The order is:

INTRO 1
INTRO 2
VERSE 1
PRE CHORUS
CHORUSE
INTRO 2
VERSE 2
PRE CHORUS
CHORUS
INTRO 2
INTRO 2
BRIDGE
PRE CHORUS
CHORUS
INTRO 2
INTRO 2
CLOSEING (B chord and hold)

Notes:
The "(hold)"s in the verses and pre chorus mean you have to hold the note. duh... 
other than thatm play through it with the song
and you'll get the timing down. Have fun!


This tab was created by me. I learned how to play the song with a mixture of by-ear, 
from fellow guitarists, and my own
adaptation of other tabs. I doubt it's 100% accurate, but noone has a tab up for this 
(TAB, not CHORD LIST!).
Tap to rate this tab
 
# A B C D E F G H I J K L M N O P Q R S T U V W X Y Z