Steve Fee - Rise And Sing tab

Tabbed by Westley Nottingham
Rhythm Guitar
Here is the other half, enjoy =D

Intro
e|--------------------------------------------------------------------------|
B|--------------------------------------------------------------------------|
G|----4---------------------------4-----------------------------------------|
D|----4---------------------------4-(hold)----------------------------------|
A|----2---------------------------2-----------------------------------------|
E|--------------------------------------------------------------------------|

Rhythm guitar riff
e|--------------------------------------------------------------------------|
B|--------------------------------------------------------------------------|
G|----44444444---88888888---------------------1111--------------------------| x2
D|----44444444---88888888---66666666---4444---2222--------------------------| 
A|----22222222---66666666---66666666---4444---2222--------------------------|
E|--------------------------44444444---2222---------------------------------|
Whoa-oh Whoa-oh-oh-oh-oh 

Verse 1
e|--------------------------------------------------------------------------|
B|--------------------------------------------------------------------------|
G|----44444444---99999999----------------------44444444---99999999----------| x2
D|----44444444---99999999----------------------44444444---99999999----------|
A|----22222222---77777777----------------------22222222---77777777----------|
E|--------------------------------------------------------------------------|
If youre alive and youve been redeemed, 	 	rise and sing, rise and sing.
If youve been touch by the mercy king,			rise and sing, rise and sing.

Pre-chorus
e|--------------------------------------------------------------------------|
B|--------------------------------------------------------------------------|
G|----4-----------1---------------------------------------------------------| x2
D|----4-----------1---------------------------------------------------------|
A|----2-----------2---------------------------------------------------------|
E|--------------------------------------------------------------------------|
	Whoa-oh-       Whoa-oh-oh-oh-oh.

Verse 2
e|--------------------------------------------------------------------------|
B|--------------------------------------------------------------------------|
G|----44444444---99999999----------------------44444444---99999999----------| x2
D|----44444444---99999999----------------------44444444---99999999----------|
A|----22222222---77777777----------------------22222222---77777777----------|
E|--------------------------------------------------------------------------|
If you were bound, but now youre free,			rise and sing, rise and sing.
Lift up and shout of vic-to-ry,				rise and sing, rise and sing.

Pre-chorus
e|--------------------------------------------------------------------------|
B|----4-----------1---------------------------------------------------------|
G|----4-----------1---------------------------------------------------------| x2
D|----2-----------2---------------------------------------------------------|
A|--------------------------------------------------------------------------|
E|--------------------------------------------------------------------------|
	Whoa-oh-       Whoa-oh-oh-oh-oh.

Chorus
e|--------------------------------------------------------------------------|
B|--------------------------------------------------------------------------|
G|-------44444444---88888888---------------------1111-----------------------|
D|-------44444444---88888888---66666666---4444---2222-----------------------|
A|-------22222222---66666666---66666666---4444---2222-----------------------|
E|-----------------------------44444444---2222------------------------------|
Our God is risen and       reigning, and were ele-     vating     the  

e|--------------------------------------------------------------------------|
B|--------------------------------------------------------------------------|
G|-----44444444-----88888888------------------------------------------------|
D|-----44444444-----88888888------66666666---4------------------------------|
A|-----22222222-----66666666------66666666---4------------------------------|
E|--------------------------------44444444---2------------------------------|
Glory of 	our God and	 King,			Everybody rise and sing.

Rhythm Guitar riff
e|--------------------------------------------------------------------------|
B|--------------------------------------------------------------------------|
G|----44444444---88888888---------------------1111--------------------------|
D|----44444444---88888888---66666666---4444---2222--------------------------|
A|----22222222---66666666---66666666---4444---2222--------------------------|
E|--------------------------44444444---2222---------------------------------|
Whoa-oh-       Whoa-oh-oh-oh-oh.  Whoa-oh-       Whoa-oh-oh-oh-oh.

Verse 3
e|--------------------------------------------------------------------------|
B|--------------------------------------------------------------------------|
G|----44444444---99999999----------------------44444444---99999999----------| x2
D|----44444444---99999999----------------------44444444---99999999----------|
A|----22222222---77777777----------------------22222222---77777777----------|
E|--------------------------------------------------------------------------|
Its in your heart rings a melody,			rise and sing, rise and sing.
If you have tasted and you have seen,			rise and sing, rise and sing.

Pre-chorus
e|--------------------------------------------------------------------------|
B|----4-----------1---------------------------------------------------------|
G|----4-----------1---------------------------------------------------------| x2
D|----2-----------2---------------------------------------------------------|
A|--------------------------------------------------------------------------|
E|--------------------------------------------------------------------------|
	Whoa-oh-       Whoa-oh-oh-oh-oh.

Chorus x2
e|--------------------------------------------------------------------------|
B|--------------------------------------------------------------------------|
G|-------44444444---88888888---------------------1111-----------------------|
D|-------44444444---88888888---66666666---4444---2222-----------------------|
A|-------22222222---66666666---66666666---4444---2222-----------------------|
E|-----------------------------44444444---2222------------------------------|
Our God is risen and       reigning, and were ele-     vating     the  

e|--------------------------------------------------------------------------|
B|--------------------------------------------------------------------------|
G|-----44444444-----88888888------------------------1111--------------------|
D|-----44444444-----88888888------66666666---4444---2222--------------------|
A|-----22222222-----66666666------66666666---4444---2222--------------------|
E|--------------------------------44444444---2222---------------------------|
Glory of 	our God and	 King,   		          cause

e|--------------------------------------------------------------------------|
B|--------------------------------------------------------------------------|
G|-------44444444---88888888---------------------1111-----------------------|
D|-------44444444---88888888---66666666---4444---2222-----------------------|
A|-------22222222---66666666---66666666---4444---2222-----------------------|
E|-----------------------------44444444---2222------------------------------|
our God is risen and       reigning, and were ele-     vating     the  

e|--------------------------------------------------------------------------|
B|--------------------------------------------------------------------------|
G|-----44444444-----88888888------------------------------------------------|
D|-----44444444-----88888888------66666666---4------------------------------|
A|-----22222222-----66666666------66666666---4------------------------------|
E|--------------------------------44444444---2------------------------------|
Glory of 	our God and	 King,			Everybody rise and sing.

Rhythm Guitar riff
e|--------------------------------------------------------------------------|
B|--------------------------------------------------------------------------|
G|----44444444---88888888---------------------1111--------------------------|
D|----44444444---88888888---66666666---4444---2222--------------------------|
A|----22222222---66666666---66666666---4444---2222--------------------------|
E|--------------------------44444444---2222---------------------------------|
Whoa-oh-       Whoa-oh-oh-oh-oh.  Whoa-oh-       Whoa-oh-oh-oh-oh.

Bridge
e|--------------------------------------------------------------------------|
B|--------------------------------------------------------------------------|
G|----------------------------------------------------4---------------------| x3
D|--------------------------------------------6---4---4---------------------|
A|--------------------------------------------6---4---2---------------------|
E|--------------------------------------------4---2-------------------------|
Let the redeemed of the Lord say Hallelujah, Hallelujah!
Let the redeemed of the Lord say Our God reigns, Our God reigns!
Let the redeemed of the Lord say Hallelujah, Hallelujah!
Let the redeemed of the Lord say Our God reigns, Our God reigns! (Dont play the chords after this)

Again i find that a progression of powerchord B works nicely after the final line of the bridge.

Special Chorus
e|--------------------------------------------------------------------------|
B|--------------------------------------------------------------------------|
G|-------44444444---88888888---------------------1111-----------------------|
D|-------44444444---88888888---66666666---4444---2222-----------------------|
A|-------22222222---66666666---66666666---4444---2222-----------------------|
E|-----------------------------44444444---2222------------------------------|
Our God is risen and       reigning, and were ele-     vating     the  

e|--------------------------------------------------------------------------|
B|--------------------------------------------------------------------------|
G|-----44444444-----88888888------------------------1111--------------------|
D|-----44444444-----88888888------66666666---4444---2222--------------------|
A|-----22222222-----66666666------66666666---4444---2222--------------------|
E|--------------------------------44444444---2222---------------------------|
Glory of 	our God and	 King,   		          cause
e|--------------------------------------------------------------------------|
B|--------------------------------------------------------------------------|
G|-------4444-------(hold silent)8------------------------------------------|
D|-------4444--------------------8-6666---(and again)--4--------------------|
A|-------2222--------------------6-6666----------------4--------------------|
E|---------------------------------4444----------------2--------------------|
Our God is risen and       reigning, and 	    were ele-     	vating 	        the  

e|--------------------------------------------------------------------------|
B|--------------------------------------------------------------------------|
G|-----4444----------------8------------------------------------------------|
D|-----4444----------------8------6666--------------------------------------|
A|-----2222----------------6------6666--------------------------------------|
E|--------------------------------4444--------------------------------------|
Glory of 	our God and	  King,   		          cause

e|--------------------------------------------------------------------------|
B|--------------------------------------------------------------------------|
G|-------44444444---88888888---------------------1111-----------------------|
D|-------44444444---88888888---66666666---4444---2222-----------------------|
A|-------22222222---66666666---66666666---4444---2222-----------------------|
E|-----------------------------44444444---2222------------------------------|
our God is risen and       reigning, and were ele-     vating     the  

e|--------------------------------------------------------------------------|
B|--------------------------------------------------------------------------|
G|-----44444444-----88888888------------------------------------------4-----|
D|-----44444444-----88888888------66666666---4444---------------------4-----|
A|-----22222222-----66666666------66666666---4444---------------------2-----|
E|--------------------------------44444444---2222---------------------------|
Glory of 	our God and	 King,			Everybody Rise and Sing!

Tap to rate this tab
 
# A B C D E F G H I J K L M N O P Q R S T U V W X Y Z