Song name
# A B C D E F G H I J K L M N O P Q R S T U V W X Y Z

Steve Fee - God Is Alive tab

God Is Alive by Steve Fee

This is just the lead part under the bridge. Other tabs are fairly accurate on most of 
the song, but I couldn't find a good tab for the bridge so here's one.


Bridge:

   B                                         C#m
e|-----------------------------------------|---------------------------|
B|-----14------16------17------16--14--16--|------14------16------12~--|
G|-16------16------16------16--------------|--14------14------14-------|
D|-----------------------------------------|---------------------------|
A|-----------------------------------------|---------------------------|
E|-----------------------------------------|---------------------------|

    A                   E                      B
e|------------------------------------------|--------------|
B|------14------14----------12------12------|--16~---------|
G|--14------14------14--13------13------13--|--16~---------|
D|------------------------------------------|--------------|
A|------------------------------------------|--------------|
E|------------------------------------------|--------------|
Tap to rate this tab
# A B C D E F G H I J K L M N O P Q R S T U V W X Y Z